Oops, an error
Loading. Please wait.

Depth Of Satans Eyes tab

version 1
version 1

Whole song

Interactive

by Ghost
931 views 27 this week
1 commentread comment
1 2 3 4 5
2 more votes to show rating
add to favorites
×
Save as Personal and add changes to this tab that will be seen only by you. Learn more ›
×
You can save this tab as Personal to edit and correct it or add notes. All changes will be seen only by you. Learn more »
launch autoscroll
font size
0
reset
how to read this tab
guitar tuner
edit
Autoscroll
slow
fast
+/-
esc
set tempo
stop
Depth of Satan's Eyes

Standard Tuning, but tuned down one whole step

|: = repeat sign
:| = repeat sign
^ = hammer-on/pull-off
/ = slide up
\ = slide down
() = harmonics
x = string mute
^b = bend
qr = Quick Rest
T = tapping

pm
== = Palm Mute



INTRO
GUITAR ONE
d|--------------------------------------------------------------------
A|--------------------------------------------------------------------
F|----9-----7---------------------9-----7-----------------------------
C|----9-pm--7-----8------===------9-----7-----8-------=====-----------
G|----7-===-5-===-8--===-3-3-===--7-===-5-===-8-=====-1-3-5-----------
D|------0-0---0-0-6--0-0-1-1-0-0----0-0---0-0-6-0-2-4-----------------



GUITAR TWO, 
repeat throughout intro
d||-------------------||
A||:---11--11--------:||
F||-----9---9---qr----||
C||-------------------||
G||:-----------------:||
D||-------------------||



GUITAR ONE
d|---------------------------------------------------------------
A|---------------------------------------------------------------
F|----9-----7---------------------9-----7----------------3-------
C|----9-pm--7-----8------===------9-----7--------------2---------
G|----7-===-5-===-8--===-3-3-===--7-===-5--------1-3-5-----------
D|------0-0---0-0-6--0-0-1-1-0-0----0-0----0-2-4-----------------



GUITAR TWO, 
repeat throughout intro
d||-------------------||
A||:---11--11--------:||
F||-----9---9---qr----||
C||-------------------||
G||:-----------------:||
D||-------------------||



BOTH GUITARS
d|------------------------------------------------------------
A|------------------------------------------------------------
F|----9-----7---------------------9-----7---------------------
C|----9-pm--7-----8------===------9-----7-----8-------=====---
G|----7-===-5-===-8--===-3-3-===--7-===-5-===-8-=====-1-3-5---
D|------0-0---0-0-6--0-0-1-1-0-0----0-0---0-0-6-0-2-4---------


BOTH GUITARS
d|---------------------------------------------------------------
A|---------------------------------------------------------------
F|----9-----7---------------------9-----7----------------3-------
C|----9-pm--7-----8------===------9-----7--------------2---------
G|----7-===-5-===-8--===-3-3-===--7-===-5--------1-3-5-----------
D|------0-0---0-0-6--0-0-1-1-0-0----0-0----0-2-4-----------------



VERSE, BOTH GUITARS
d|------------------------------------------------------------
A|------------------------------------------------------------
F|----9-----7---------------------9-----7---------------------
C|----9-pm--7-----8------===------9-----7-----8-------=====---
G|----7-===-5-===-8--===-3-3-===--7-===-5-===-8-=====-1-3-5---
D|------0-0---0-0-6--0-0-1-1-0-0----0-0---0-0-6-0-2-4---------



VERSE, BOTH GUITARS
d|---------------------------------------------------------------
A|---------------------------------------------------------------
F|----9-----7---------------------9-----7----------------3-------
C|----9-pm--7-----8------===------9-----7--------------2---------
G|----7-===-5-===-8--===-3-3-===--7-===-5--------1-3-5-----------
D|------0-0---0-0-6--0-0-1-1-0-0----0-0----0-2-4-----------------



VERSE, BOTH GUITARS
d|------------------------------------------------------------
A|------------------------------------------------------------
F|----9-----7---------------------9-----7---------------------
C|----9-pm--7-----8------===------9-----7-----8-------=====---
G|----7-===-5-===-8--===-3-3-===--7-===-5-===-8-=====-1-3-5---
D|------0-0---0-0-6--0-0-1-1-0-0----0-0---0-0-6-0-2-4---------



VERSE, BOTH GUITARS
d|-------------------------------------------------------------------
A|-------------------------------------------------------------------
F|----9-----7---------------------9-----7----------------3--------5--
C|----9-pm--7-----8------===------9-----7--------------2----2---2-x--
G|----7-===-5-===-8--===-3-3-===--7-===-5--------1-3-5------4---4-3--
D|------0-0---0-0-6--0-0-1-1-0-0----0-0----0-2-4---------------------



CHORUS
d|--------------------------------------
A|--------------------------------------
F|--------------------------------------
C|--9-------10---------9--------8-8-8-8-
G|--7--------8---------7--------8-8-8-8-
D|----0-0-0-----0-0-0-----0-0-0-6-6-6-6-




CHORUS
d|--------------------------------------
A|--------------------------------------
F|--------------------------------------
C|--9-------10---------9--------8-8-8-8-
G|--7--------8---------7--------8-8-8-8-
D|----0-0-0-----0-0-0-----0-0-0-6-6-6-6-



CHORUS
d|------------------------------------------------------------------------
A|------------------------------------------------------------------------
F|------------5-5-5-5-------------------------3-3-3-3-4-4-4-4-4-4-4-4-----
C|---9--------5-5-5-5-5-5-5-5-3-3-3-3---------x-x-x-x-x-x-x-x-x-x-x-x-----
G|---7--------3-3-3-3-5-5-5-5-3-3-3-3-2-2-2-2-1-1-1-1-2-2-2-2-2-2-2-2-----
D|-----0-0-0----------3-3-3-3-1-1-1-1-0-0-0-0-----------------------------



CHORUS
d|--------------------------------------
A|--------------------------------------
F|--------------------------------------
C|--9-------10---------9--------8-8-8-8-
G|--7--------8---------7--------8-8-8-8-
D|----0-0-0-----0-0-0-----0-0-0-6-6-6-6-



CHORUS
d|--------------------------------------
A|--------------------------------------
F|--------------------------------------
C|--9-------10---------9--------8-8-8-8-
G|--7--------8---------7--------8-8-8-8-
D|----0-0-0-----0-0-0-----0-0-0-6-6-6-6-



CHORUS
d|------------------------------------------------------------------------
A|------------------------------------------------------------------------
F|------------5-5-5-5-------------------------3-3-3-3-4-4-4-4-4-4-4-4-----
C|---9--------5-5-5-5-5-5-5-5-3-3-3-3---------x-x-x-x-x-x-x-x-x-x-x-x-----
G|---7--------3-3-3-3-5-5-5-5-3-3-3-3-2-2-2-2-1-1-1-1-2-2-2-2-2-2-2-2-----
D|-----0-0-0----------3-3-3-3-1-1-1-1-0-0-0-0-----------------------------


BRIDGE
d|---------------------------------------------------------------
A|---------------------------------------------------------------
F|----9-----7---------------------9-----7----------------3-------
C|----9-pm--7-----8------===------9-----7--------------2---------
G|----7-===-5-===-8--===-3-3-===--7-===-5--------1-3-5-----------
D|------0-0---0-0-6--0-0-1-1-0-0----0-0----0-2-4-----------------



BRIDGE
d|--------------------------------------------------
A|--------------------------------------------------
F|------------------------------------6---9-11-11---
C|--5-pm------5---------5-------------6---9-11-11---
G|--3-=======-3-=======-3-=======-----4-=-7--9--9---
D|----2-2-2-2---2-2-2-2---2-2-2-2-6^0---0-----------



BRIDGE
d|--------------------------------------------------
A|--------------------------------------------------
F|------------------------------------6---9-9--11---
C|--5-pm------5---------5-------------6---x-x---x---
G|--3-=======-3-=======-3-=======-----4-=-7-7---9---
D|----2-2-2-2---2-2-2-2---2-2-2-2-6^0---0-----------



BRIDGE
d|--------------------------------------------------
A|--------------------------------------------------
F|------------------------------------6---9-11-11---
C|--5-pm------5---------5-------------6---9-11-11---
G|--3-=======-3-=======-3-=======-----4-=-7--9--9---
D|----2-2-2-2---2-2-2-2---2-2-2-2-6^0---0-----------



BRIDGE
d|--------------------------------------------------
A|--------------------------------------------------
F|------------------------------------6---10-9------
C|--5-pm------5---------5-------------6---10-9------
G|--3-=======-3-=======-3-=======-----4-=--8-7------
D|----2-2-2-2---2-2-2-2---2-2-2-2-6^0---0-----------



Weird middle part
d|--pm--------------------------11----------------------------------------------11------------
A|--===---------12-11^12^11^12-----12-10---------------------------12-11^12^11-----12-10------
F|--8-8---------------------------------------------------------------------------------------
C|----------------------------------------=========-6----=====--------------------------------
G|------x-9-8-----------------------------6-8-9-8-9------6-6-8-9-8----------------------------
D|--------------------------------------------------------------------------------------------



Weird middle part
d|--------------------------------------------11-11-----------------------------------------
A|--------------------------------12-11^12^11--------12-10----------------------------------
F|---------------------pm------------------------------------pm-----------------------------
C|--=---------6---6----=====---------------------------------=========-6----=========-------
G|--6-9-9-8-9---9------6-6-8-9-8-----------------------------6-8-9-8-9------6-6-8-9-8-------
D|------------------------------------------------------------------------------------------



Weird middle part
d|---------------11-11------------------------------------------------
A|--12-11^12^11--------12-10------------------------------------------
F|--------------------------------------------------------------------
C|----------------------------------------6---6-----------------------
G|-----------------------------6--8-9-8-9---9-------------------------
D|--------------------------------------------------------------------



BOTH GUITARS
d|------------------------------------------------------------
A|------------------------------------------------------------
F|----9---9-7---7-----------------9---9-7---7-----------------
C|----9---9-7---7-8---------------9---9-7---7-8-------=====---
G|----7---7-5---5-8------3-3------7---7-5---5-8-=====-1-3-5---
D|------0-----0---6--0-0-1-1-0-0----0-----0---6-0-2-4---------



BOTH GUITARS
d|---------------------------------------------------------------
A|---------------------------------------------------------------
F|----9---9-7---7-----------------9---9-7----------------3-------
C|----9---9-7---7-8---------------9---9-7--------------2---------
G|----7---7-5---5-8------3-3------7---7-5--------1-3-5-----------
D|------0-----0---6--0-0-1-1-0-0----0------0-2-4-----------------



VERSE, BOTH GUITARS
d|------------------------------------------------------------
A|------------------------------------------------------------
F|----9-----7---------------------9-----7---------------------
C|----9-pm--7-----8------===------9-----7-----8-------=====---
G|----7-===-5-===-8--===-3-3-===--7-===-5-===-8-=====-1-3-5---
D|------0-0---0-0-6--0-0-1-1-0-0----0-0---0-0-6-0-2-4---------



VERSE, BOTH GUITARS
d|---------------------------------------------------------------
A|---------------------------------------------------------------
F|----9-----7---------------------9-----7----------------3-------
C|----9-pm--7-----8------===------9-----7--------------2---------
G|----7-===-5-===-8--===-3-3-===--7-===-5--------1-3-5-----------
D|------0-0---0-0-6--0-0-1-1-0-0----0-0----0-2-4-----------------



VERSE, BOTH GUITARS
d|------------------------------------------------------------
A|------------------------------------------------------------
F|----9-----7---------------------9-----7---------------------
C|----9-pm--7-----8------===------9-----7-----8-------=====---
G|----7-===-5-===-8--===-3-3-===--7-===-5-===-8-=====-1-3-5---
D|------0-0---0-0-6--0-0-1-1-0-0----0-0---0-0-6-0-2-4---------



VERSE, BOTH GUITARS
d|---------------------------------------------------------------
A|---------------------------------------------------------------
F|----9-----7---------------------9-----7----------------3-------
C|----9-pm--7-----8------===------9-----7--------------2---------
G|----7-===-5-===-8--===-3-3-===--7-===-5--------1-3-5-----------
D|------0-0---0-0-6--0-0-1-1-0-0----0-0----0-2-4-----------------



VERSE, BOTH GUITARS
d|--------------------------------------------------------------------
A|-----------------10-------------------------------------------------
F|---6--6--5----12-12-------------------------------------------------
C|---x--x--x----12----------------------------------------------------
G|---4--4--3----10----------------------------------------------------
D|--------------------------------------------------------------------



SOLO
d|-----------------------11-12--11^12-12^b-12^11-12------12-11^12-12^b-12^11-------------------
A|--12-11-12-14-15-13-15----------------------------12-----------------------------------------
F|---------------------------------------------------------------------------------------------
C|---------------------------------------------------------------------------------------------
G|---------------------------------------------------------------------------------------------
D|---------------------------------------------------------------------------------------------



SOLO
d|-12-15-14-12-----------------------------------------12----14^b^b----------------------------
A|-------------12-13---13-15----12--15-13^12----13-12-----12-----------------------------------
F|---------------------------12--------------14------------------------------------------------
C|---------------------------------------------------------------------------------------------
G|---------------------------------------------------------------------------------------------
D|---------------------------------------------------------------------------------------------



RHYTHM UNDER SOLO
d|--------------------------------------------------------------------
A|--------------------------------------------------------------------
F|--11-10-------------------------------------------------------------
C|--11-10---9-------10--------9-------8-8-8-8-------------------------
G|---9--8---7-=====--8--=====-7-=====-8-8-8-8-------------------------
D|------------0-0-0-----0-0-0---0-0-0-6-6-6-6-------------------------



RHYTHM UNDER SOLO
d|--------------------------------------
A|--------------------------------------
F|--------------------------------------
C|--9-------10---------9--------8-8-8-8-
G|--7--------8---------7--------8-8-8-8-
D|----0-0-0-----0-0-0-----0-0-0-6-6-6-6-



RHYTHM UNDER SOLO
d|------------------------------------------------------------------------
A|------------------------------------------------------------------------
F|------------5-5-5-5-------------------------3-3-3-3-4-4-4-4-4-4-4-4-----
C|---9--------5-5-5-5-5-5-5-5-3-3-3-3---------x-x-x-x-x-x-x-x-x-x-x-x-----
G|---7--------3-3-3-3-5-5-5-5-3-3-3-3-2-2-2-2-1-1-1-1-2-2-2-2-2-2-2-2-----
D|-----0-0-0----------3-3-3-3-1-1-1-1-0-0-0-0-----------------------------




CHORUS
d|--------------------------------------
A|--------------------------------------
F|--------------------------------------
C|--9-------10---------9--------8-8-8-8-
G|--7--------8---------7--------8-8-8-8-
D|----0-0-0-----0-0-0-----0-0-0-6-6-6-6-




CHORUS
d|--------------------------------------
A|--------------------------------------
F|--------------------------------------
C|--9-------10---------9--------8-8-8-8-
G|--7--------8---------7--------8-8-8-8-
D|----0-0-0-----0-0-0-----0-0-0-6-6-6-6-



CHORUS
d|------------------------------------------------------------------------
A|------------------------------------------------------------------------
F|------------5-5-5-5-------------------------3-3-3-3-4-4-4-4-4-4-4-4-----
C|---9--------5-5-5-5-5-5-5-5-3-3-3-3---------x-x-x-x-x-x-x-x-x-x-x-x-----
G|---7--------3-3-3-3-5-5-5-5-3-3-3-3-2-2-2-2-1-1-1-1-2-2-2-2-2-2-2-2-----
D|-----0-0-0----------3-3-3-3-1-1-1-1-0-0-0-0-----------------------------




CHORUS
d|--------------------------------------
A|--------------------------------------
F|--------------------------------------
C|--9-------10---------9--------8-8-8-8-
G|--7--------8---------7--------8-8-8-8-
D|----0-0-0-----0-0-0-----0-0-0-6-6-6-6-




CHORUS
d|--------------------------------------
A|--------------------------------------
F|--------------------------------------
C|--9-------10---------9--------8-8-8-8-
G|--7--------8---------7--------8-8-8-8-
D|----0-0-0-----0-0-0-----0-0-0-6-6-6-6-



CHORUS
d|------------------------------------------------------------------------
A|------------------------------------------------------------------------
F|------------5-5-5-5-------------------------3-3-3-3-4-4-4-4-4-4-4-4-----
C|---9--------5-5-5-5-5-5-5-5-3-3-3-3---------x-x-x-x-x-x-x-x-x-x-x-x-----
G|---7--------3-3-3-3-5-5-5-5-3-3-3-3-2-2-2-2-1-1-1-1-2-2-2-2-2-2-2-2-----
D|-----0-0-0----------3-3-3-3-1-1-1-1-0-0-0-0-----------------------------



CHORUS
d|-----------------------------------------------------------------------
A|-----------------------------------------------------------------------
F|-------------------6-6-6-6-6-6-6-6-------------------6-6-6-6-6-6-6-6---
C|---2-2-2-2-5-5-5-5-6-6-6-6-6-6-6-6---2-2-2-2-5-5-5-5-6-6-6-6-6-6-6-6---
G|---2-2-2-2-5-5-5-5-4-4-4-4-4-4-4-4---2-2-2-2-5-5-5-5-4-4-4-4-4-4-4-4---
D|---0-0-0-0-3-3-3-3-------------------0-0-0-0-3-3-3-3-------------------



CHORUS
d|---------------------------------------------------------------------------
A|---------------------------------------------------------------------------
F|------------------5-5-5-5-7-7-7-7-9-9-9-9-9-9-9-9-10-10-10-10-10-10-10-10--
C|--2-2-2-2-5-5-5-5-5-5-5-5-7-7-7-7-9-9-9-9-9-9-9-9-10-10-10-10-10-10-10-10--
G|--2-2-2-2-5-5-5-5-3-3-3-3-5-5-5-5-7-7-7-7-7-7-7-7--8--8--8--8--8--8--8--8--
D|--0-0-0-0-3-3-3-3----------------------------------8--8--8--8--8--8--8--8--



CHORUS
d|-----------------------------------------------------------------------
A|-----------------------------------------------------------------------
F|-------------------6-6-6-6-6-6-6-6-------------------6-6-6-6-6-6-6-6---
C|---2-2-2-2-5-5-5-5-6-6-6-6-6-6-6-6---2-2-2-2-5-5-5-5-6-6-6-6-6-6-6-6---
G|---2-2-2-2-5-5-5-5-4-4-4-4-4-4-4-4---2-2-2-2-5-5-5-5-4-4-4-4-4-4-4-4---
D|---0-0-0-0-3-3-3-3-------------------0-0-0-0-3-3-3-3-------------------



CHORUS
d|--------------------------------------------------------------------
A|--------------------------------------------------------------------
F|--5-5-5-5-5-5-5-5-7-7-7-7-7-7-7-7-9-9-9-9-9-9-9-9--8-8-8-8-8-8-8-8--
C|--5-5-5-5-5-5-5-5-7-7-7-7-7-7-7-7-9-9-9-9-9-9-9-9--8-8-8-8-8-8-8-8--
G|--3-3-3-3-3-3-3-3-5-5-5-5-5-5-5-5-7-7-7-7-7-7-7-7--6-6-6-6-6-6-6-6--
D|---------------------------------------------------6-6-6-6-6-6-6-6--



CHORUS
d|--------------------------------------
A|--------------------------------------
F|--------------------------------------
C|--9-------10---------9--------8-8-8-8-
G|--7--------8---------7--------8-8-8-8-
D|----0-0-0-----0-0-0-----0-0-0-6-6-6-6-



CHORUS
d|--------------------------------------
A|--------------------------------------
F|--------------------------------------
C|--9-------10---------9--------8-8-8-8-
G|--7--------8---------7--------8-8-8-8-
D|----0-0-0-----0-0-0-----0-0-0-6-6-6-6-



CHORUS
d|------------------------------------------------------------------------
A|------------------------------------------------------------------------
F|------------5-5-5-5-------------------------3-3-3-3-4-4-4-4-4-4-4-4-----
C|---9--------5-5-5-5-5-5-5-5-3-3-3-3---------x-x-x-x-x-x-x-x-x-x-x-x-----
G|---7--------3-3-3-3-5-5-5-5-3-3-3-3-2-2-2-2-1-1-1-1-2-2-2-2-2-2-2-2-----
D|-----0-0-0----------3-3-3-3-1-1-1-1-0-0-0-0-----------------------------



CHORUS
d|--------------------------------------
A|--------------------------------------
F|--------------------------------------
C|--9-------10---------9--------8-8-8-8-
G|--7--------8---------7--------8-8-8-8-
D|----0-0-0-----0-0-0-----0-0-0-6-6-6-6-



CHORUS
d|--------------------------------------
A|--------------------------------------
F|--------------------------------------
C|--9-------10---------9--------8-8-8-8-
G|--7--------8---------7--------8-8-8-8-
D|----0-0-0-----0-0-0-----0-0-0-6-6-6-6-



CHORUS
d|------------------------------------------------------------------------
A|------------------------------------------------------------------------
F|------------5-5-5-5-------------------------3-3-3-3-4-4-4-4-4-4-4-4-----
C|---9--------5-5-5-5-5-5-5-5-3-3-3-3---------x-x-x-x-x-x-x-x-x-x-x-x-----
G|---7--------3-3-3-3-5-5-5-5-3-3-3-3-2-2-2-2-1-1-1-1-2-2-2-2-2-2-2-2-----
D|-----0-0-0----------3-3-3-3-1-1-1-1-0-0-0-0-----------------------------




CHORUS START TO FADE OUT ON THIS PART
d|--------------------------------------
A|--------------------------------------
F|--------------------------------------
C|--9-------10---------9--------8-8-8-8-
G|--7--------8---------7--------8-8-8-8-
D|----0-0-0-----0-0-0-----0-0-0-6-6-6-6-



CHORUS START TO FADE OUT ON THIS PART
d|--------------------------------------
A|--------------------------------------
F|--------------------------------------
C|--9-------10---------9--------8-8-8-8-
G|--7--------8---------7--------8-8-8-8-
D|----0-0-0-----0-0-0-----0-0-0-6-6-6-6-



CHORUS START TO FADE OUT ON THIS PART
d|------------------------------------------------------------------------
A|------------------------------------------------------------------------
F|------------5-5-5-5-------------------------3-3-3-3-4-4-4-4-4-4-4-4-----
C|---9--------5-5-5-5-5-5-5-5-3-3-3-3---------x-x-x-x-x-x-x-x-x-x-x-x-----END
G|---7--------3-3-3-3-5-5-5-5-3-3-3-3-2-2-2-2-1-1-1-1-2-2-2-2-2-2-2-2-----
D|-----0-0-0----------3-3-3-3-1-1-1-1-0-0-0-0-----------------------------






            
            
Suggest correction
Creating personal tab
Creating personal tab
You can edit any tab online and save it as your Personal.

You can edit, replace or remove any tab part or add personal notes – all changes will be seen only by you.

Personal tabs can be accessed anytime from any device, even offline.
Learn more »
Give kudos to tab author, rate the tab!
1 2 3 4 5
comments
print report bad tab
1 comment total.
0 reply
lildeth7 10 Oct 01, 2017 11:38 AM

<3 <3 <3.

guest
You may want to rate the tab now too:
select rating
Wanna post a correction for this tab? Suggest correction