Oops, an error
Loading. Please wait.

Idolatrine tab

by Ghost
1,282 views 30 this week
no commentswrite comment
1 2 3 4 5
1 last vote to show rating
add to favorites
×
Save as Personal and add changes to this tab that will be seen only by you. Learn more ›
×
You can save this tab as Personal to edit and correct it or add notes. All changes will be seen only by you. Learn more »
launch autoscroll
font size
0
reset
how to read this tab
guitar tuner
edit
Autoscroll
slow
fast
+/-
esc
set tempo
stop
[Intro]

GUITAR ONE, PLAY TWICE
d||-----------------------------------------||
A||:---------------------------------------:||
F||---/9--8-9-8-----------/12-11-12-11------||
C||--7----------9-10-9--7--------------14---||
G||:---------------------------------------:||
D||-----------------------------------------||

GUITAR TWO, PLAY EIGHT TIMES:
d||-------------------||
A||:-----------------:||
F||-------------------||
C||-------------------||
G||:-----------------:||
D||---3--5---5---5----||


[Verse]

PLAY FOUR TIMES
d||-------------------|| ----------------------------|
A||:-----------------:|| ----6-----6------6-----6----|
F||-----9--pm--9------|| ----7-pm--7------7-----7----|
C||---=-7--===-7-=----|| --=-7-===-7-===--7-===-7-=--|
G||:--0----0-0---0---:|| --5---5-5---5-5----5-5---5--|
D||-------------------|| ----------------------------|

PLAY SIX TIMES
d||-------------------|| ----------------------------------------------------------|
A||:-----------------:|| ----6-----6-----------------------------------------------|
F||-----9--pm--9------|| ----7-pm--7-------10-----10------9-----9------9-----9-----|
C||---=-7--===-7-=----|| --=-7-===-7-=---=-10-===-10-=--=-7-===-7-=--=-7-===-7-=---|
G||:--0----0-0---0---:|| --5---5-5---5---8----8-8----8--0---0-0---0--0---0-0---0---|
D||-------------------|| ----------------------------------------------------------|


[Chorus]

d|------------------------------------------------------------------------|
A|------------------------------------------------------------------------|
F|----7-7-7-7-7--12-12-12-12-12--14\10------10--7-7-7-7-7--12-12-12-12-12-|
C|----7-7-7-7-7--12-12-12-12-12--14\10--12--10--7-7-7-7-7--12-12-12-12-12-|
G|----5-5-5-5-5--10-10-10-10-10--12\-8---9---8--5-5-5-5-5--10-10-10-10-10-|
D|------------------------------------------------------------------------|


d|--------------------------------------------|
A|--------------------------------------------|
F|--------------------------------------------|
C|---7-7-7-7--5--7-7-7-7-7-7------------------|
G|---x-x-x-x--x--x-x-x-x-x-x------------------|
D|---5-5-5-5--3--5-5-5-5-5-5------------------|


d|------------------------------------------------------------------------------|
A|------------------------------------------------------------------------------|
F|---7-7--7-7-7-7-/12--12/14-10------10--7-7-7-7-7-7-12-10----12--9\------------|
C|---7-7--7-7-7-7-/12--12/14-10--12--10--7-7-7-7-7-7-12-10-12-12--9\-2----------|
G|---5-5--5-5-5-5-/10--10/12--8---9---8--5-5-5-5-5-5-10--8--9-10--7\-2----------|
D|-------------------------------------------------------------------0----------|

GUITAR ONE
d|--------------------------------------------|
A|--------------------------------------------|
F|----/9--8-9-8-----------/12-11-12-11--------|
C|---7----------9-10-9--7--------------14-----|
G|--------------------------------------------|
D|--------------------------------------------|


GUITAR TWO, PLAY 4 TIMES
d||-------------------||
A||:-----------------:||
F||-------------------||
C||-------------------||
G||:-----------------:||
D||---3--5---5---5----||

Play four times
d||-------------------|| ----------------------------|
A||:-----------------:|| ----6-----6------6-----6----|
F||-----9--pm--9------|| ----7-pm--7------7-----7----|
C||---=-7--===-7-=----|| --=-7-===-7-===--7-===-7-=--|
G||:--0----0-0---0---:|| --5---5-5---5-5----5-5---5--|
D||-------------------|| ----------------------------|


[Verse]

PLAY SIX TIMES
d||-------------------|| ----------------------------------------------------------|
A||:-----------------:|| ----6-----6-----------------------------------------------|
F||-----9--pm--9------|| ----7-pm--7-------10-----10------9-----9------9-----9-----|
C||---=-7--===-7-=----|| --=-7-===-7-=---=-10-===-10-=--=-7-===-7-=--=-7-===-7-=---|
G||:--0----0-0---0---:|| --5---5-5---5---8----8-8----8--0---0-0---0--0---0-0---0---|
D||-------------------|| ----------------------------------------------------------|


[Chorus]

d|------------------------------------------------------------------------|
A|------------------------------------------------------------------------|
F|----7-7-7-7-7--12-12-12-12-12--14\10------10--7-7-7-7-7--12-12-12-12-12-|
C|----7-7-7-7-7--12-12-12-12-12--14\10--12--10--7-7-7-7-7--12-12-12-12-12-|
G|----5-5-5-5-5--10-10-10-10-10--12\-8---9---8--5-5-5-5-5--10-10-10-10-10-|
D|------------------------------------------------------------------------|


d|--------------------------------------------|
A|--------------------------------------------|
F|--------------------------------------------|
C|---7-7-7-7--5--7-7-7-7-7-7------------------|
G|---x-x-x-x--x--x-x-x-x-x-x------------------|
D|---5-5-5-5--3--5-5-5-5-5-5------------------|


d|------------------------------------------------------------------------------|
A|------------------------------------------------------------------------------|
F|---7-7--7-7-7-7-/12--12/14-10------10--7-7-7-7-7-7-12-10----12--9\------------|
C|---7-7--7-7-7-7-/12--12/14-10--12--10--7-7-7-7-7-7-12-10-12-12--9\-2-2-2-2-2--|
G|---5-5--5-5-5-5-/10--10/12--8---9---8--5-5-5-5-5-5-10--8--9-10--7\-2-2-2-2-2--|
D|-------------------------------------------------------------------0-0-0-0-0--|

PLAY TWICE
d||-------------------||
A||:-----------------:||
F||-----9--pm--9------||
C||---=-7--===-7-=----||
G||:--0----0-0---0---:||
D||-------------------||


[Bridge]

d|-------------------------------------------------------------------------------|
A|--------------------------8-9-9-9-9--------------------------------------------|
F|---------------------5-x--7-8-8-8-8--10-10-10-10-10-10-10-10-------------------|
C|----6-6-6-6-6-6-6-6--5-x--5-6-6-6-6--10-10-10-10-10-10-10-10--8-8-8-8-8-8-8-8--|
G|----6-6-6-6-6-6-6-6--3-x--------------8--8--8--8--8--8--8--8--8-8-8-8-8-8-8-8--|
D|----4-4-4-4-4-4-4-4-------------------8--8--8--8--8--8--8--8--6-6-6-6-6-6-6-6--|


d|-------------------------------------------------------------------------------|
A|--------------------------8-9-9-9-9--------------------------------------------|
F|---------------------5-x--7-8-8-8-8--10-10-10-10-10-10-10-10-------------------|
C|----6-6-6-6-6-6-6-6--5-x--5-6-6-6-6--10-10-10-10-10-10-10-10--8-8-8-8-8-8-8-8--|
G|----6-6-6-6-6-6-6-6--3-x--------------8--8--8--8--8--8--8--8--8-8-8-8-8-8-8-8--|
D|----4-4-4-4-4-4-4-4-------------------8--8--8--8--8--8--8--8--6-6-6-6-6-6-6-6--|


d|-------------------------------------------------------------------------------|
A|--------------------------8-9-9-9-9--------------------------------------------|
F|---------------------5-x--7-8-8-8-8--10-10-10-10-10-10-10-10-------------------|
C|----6-6-6-6-6-6-6-6--5-x--5-6-6-6-6--10-10-10-10-10-10-10-10--8-8-8-8-8-8-8-8--|
G|----6-6-6-6-6-6-6-6--3-x--------------8--8--8--8--8--8--8--8--8-8-8-8-8-8-8-8--|
D|----4-4-4-4-4-4-4-4-------------------8--8--8--8--8--8--8--8--6-6-6-6-6-6-6-6--|


d|--------------------------------------------------------------------|
A|--------------------------------------------------------------------|
F|--------------------------------------5-----------------------------|
C|----6-6-6-6-6-6-6-6--5-5-5-5-5-5-5-5--5-----------------------------|
G|----6-6-6-6-6-6-6-6--5-5-5-5-5-5-5-5--3-----------------------------|
D|----4-4-4-4-4-4-4-4--3-3-3-3-3-3-3-3--3-----------------------------|


[Solo]

d|--15^b^15^b-13-12---17-17-15-----------------12^b-12^b12-10----------------------------------|
A|-----------------------------18-17----13-17-----------------12--12^b12-10-12-10-9-10-9----9--|
F|-----------------------------------14--------------------------------------------------10----|
C|---------------------------------------------------------------------------------------------|
G|---------------------------------------------------------------------------------------------|
D|---------------------------------------------------------------------------------------------|


d|---------------5-7-5------------5-8-7-5-----------5-7-7^b--------------5-------5-7-8-7-5-7-|
A|-------------5----------------5-----------------5-----------------5--8---8---8-------------|
F|-10-9------7----------------7-----------------7-----------------7--------------------------|
C|-------5-7--------------5-7---------------5-7---------------5-7----------------------------|
G|-------------------------------------------------------------------------------------------|
D|-------------------------------------------------------------------------------------------|


GUITAR UNDER SOLO
d|-------------------------------------------------------------------------------------------|
A|-------------------------------------------------------------------------------------------|
F|-------------------------------------------------------------------------------------------|
C|---------------2-2-2-2-2-2---------------2-2-2-2-2-2---------------2-2-2-2-2-2-------------|
G|--3-3-3-3-3-3--0-0-0-0-0-0--3-3-3-3-3-3--0-0-0-0-0-0--3-3-3-3-3-3--0-0-0-0-0-0-------------|
D|--1-1-1-1-1-1---------------1-1-1-1-1-1---------------1-1-1-1-1-1--------------------------|

GUITAR UNDER SOLO
d|----------------------------------------------------------------------------------------|
A|----------------------------------------------------------------------------------------|
F|---9-9-9-9-9-9--9-9-9-9-9-9------------------4------------------4------------------4----|
C|---x-x-x-x-x-x--x-x-x-x-x-x-------2-5--2-4-5-2-------2-5--2-4-5-2-------2-5--2-4-5-2----|
G|---7-7-7-7-7-7--7-7-7-7-7-7---3-5-0-3--0-2-3-----3-5-0-3--0-2-3-----3-5-0-3--0-2-3------|
D|------------------------------1-3----------------1-3----------------1-3-----------------|

GUITAR UNDER SOLO
d|--------------------------------------------------------------------|
A|--------------------------------------------------------------------|
F|--------------------------------------------------------------------|
C|--5-5-5-5-5-5-5-5-5-5-5-5-5-5-5-5-5-5-5-5-5-5-5-5-------------------|
G|--5-5-5-5-5-5-5-5-5-5-5-5-5-5-5-5-5-5-5-5-5-5-5-5-------------------|
D|--3-3-3-3-3-3-3-3-3-3-3-3-3-3-3-3-3-3-3-3-3-3-3-3-------------------|


[Chorus]

d|------------------------------------------------------------------------|
A|------------------------------------------------------------------------|
F|----7-7-7-7-7--12-12-12-12-12--14\10------10--7-7-7-7-7--12-12-12-12-12-|
C|----7-7-7-7-7--12-12-12-12-12--14\10--12--10--7-7-7-7-7--12-12-12-12-12-|
G|----5-5-5-5-5--10-10-10-10-10--12\-8---9---8--5-5-5-5-5--10-10-10-10-10-|
D|------------------------------------------------------------------------|


d|-----------------------------------------------|
A|-----------10-10-10-10-10-10-10-10-10-10-10-10-|
F|------------x--x--x--x--x--x--x--x--x--x--x--x-|
C|---7-7-7-7--7--7--7--7--7--7--7--7--7--7--7--7-|
G|---x-x-x-x-------------------------------------|
D|---5-5-5-5-------------------------------------|


d|-------------------------------------------------------------------------------------|
A|-------------------------------------------------------------------------------------|
F|--7-7-7-7-7--12-12-12-12-12--14\10------10--7-7-7-7-7--12-12-12-12-12-14-14-14-14-14-|
C|--7-7-7-7-7---x--x--x--x--x--14\10--12--10--7-7-7-7-7---x--x--x--x--x--x--x--x--x--x-|
G|--5-5-5-5-5--10-10-10-10-10--12\-8---9---8--5-5-5-5-5--10-10-10-10-10-12-12-12-12-12-|
D|-------------------------------------------------------------------------------------|



d|------------------|
A|------------------|
F|--8-8--8-8--8-8-8-|
C|--8-8--8-8--8-8-8-|
G|--6-6--6-6--6-6-6-|
D|------------------|


[Outro]

d|-----------------------------------------------------------------------|
A|-----------------------------------------------------------------------|
F|------------------------9-10-10-10-10--7-7-7-7-7-7-7-7-----------------|
C|-3-3-3-3-3-3-3-3-----x--9-10-10-10-10--7-7-7-7-7-7-7-7-5-5-5-5-5-5-5-5-|
G|-3-3-3-3-3-3-3-3--7--x--7--8--8--8--8--5-5-5-5-5-5-5-5-5-5-5-5-5-5-5-5-|
D|-1-1-1-1-1-1-1-1--5--x---------------------------------3-3-3-3-3-3-3-3-|


d|-----------------------------------------------------------------------|
A|-----------------------------------------------------------------------|
F|------------------------9-10-10-10-10--7-7-7-7-7-7-7-7-----------------|
C|-3-3-3-3-3-3-3-3-----x--9-10-10-10-10--7-7-7-7-7-7-7-7-5-5-5-5-5-5-5-5-|
G|-3-3-3-3-3-3-3-3--7--x--7--8--8--8--8--5-5-5-5-5-5-5-5-5-5-5-5-5-5-5-5-|
D|-1-1-1-1-1-1-1-1--5--x---------------------------------3-3-3-3-3-3-3-3-|


d|-----------------------------------------------------------------------|
A|-----------------------------------------------------------------------|
F|------------------------9-10-10-10-10--7-7-7-7-7-7-7-7-----------------|
C|-3-3-3-3-3-3-3-3-----x--9-10-10-10-10--7-7-7-7-7-7-7-7-5-5-5-5-5-5-5-5-|
G|-3-3-3-3-3-3-3-3--7--x--7--8--8--8--8--5-5-5-5-5-5-5-5-5-5-5-5-5-5-5-5-|
D|-1-1-1-1-1-1-1-1--5--x---------------------------------3-3-3-3-3-3-3-3-|


d|--------------------------------------------------------------------|
A|--------------------------------------------------------------------|
F|------------------2-2-2--------7-7-7-7-7-7-7-7----------------------|
C|-3-3-3-3-3-3-3-3--2-2-2-3-3-3--7-7-7-7-7-7-7-7-5-5-5-5-5-5-5-5------|
G|-3-3-3-3-3-3-3-3--0-0-0-3-3-3--5-5-5-5-5-5-5-5-5-5-5-5-5-5-5-5------|
D|-1-1-1-1-1-1-1-1--------1-1-1------------------3-3-3-3-3-3-3-3------|


d|-----------------------------------------------------------------------|
A|-----------------------------------------------------------------------|
F|------------------------9-10-10-10-10--7-7-7-7-7-7-7-7-----------------|
C|-3-3-3-3-3-3-3-3-----x--9-10-10-10-10--7-7-7-7-7-7-7-7-5-5-5-5-5-5-5-5-|
G|-3-3-3-3-3-3-3-3--7--x--7--8--8--8--8--5-5-5-5-5-5-5-5-5-5-5-5-5-5-5-5-|
D|-1-1-1-1-1-1-1-1--5--x---------------------------------3-3-3-3-3-3-3-3-|


GUITAR ONE
d|--------------------------------------------------------------------|
A|--------------------------------------------------------------------|
F|--------------------------------------------------------------------|
C|--3-3-3-3-3-3-3-3--2-2-2-2-2-2-2-2----------------------------------|
G|--3-3-3-3-3-3-3-3--2-2-2-2-2-2-2-2-----------5----3-----------------|
D|--1-1-1-1-1-1-1-1--0-0-0-0-0-0-0-0--5---7---------------------------|

GUITAR TWO
d|-----------------------------------------------------------------------|
A|--10-10-10-10-10-10-10-10---9-9-9-9--12-12-12-12-12-12--------/12--10--|
F|---x--x--x--x--x--x--x--x---x-x-x-x---x--x--x--x--x--x--5---7----------|
C|---7--7--7--7--7--7--7--7---6-6-6-6---9--9--9--9--9--9-----------------|
G|-----------------------------------------------------------------------|
D|-----------------------------------------------------------------------|



************************************

|: = repeat sign
:| = repeat sign
^ = hammer-on/pull-off
/ = slide up
\ = slide down
() = harmonics
x = string mute
^b = bend
qr = Quick Rest
T = tapping

pm
== = Palm Mute

************************************



 

            
            
Suggest correction
Creating personal tab
Creating personal tab
You can edit any tab online and save it as your Personal.

You can edit, replace or remove any tab part or add personal notes – all changes will be seen only by you.

Personal tabs can be accessed anytime from any device, even offline.
Learn more »
Give kudos to tab author, rate the tab!
1 2 3 4 5
comments
print report bad tab
guest
You may want to rate the tab now too:
select rating
Wanna post a correction for this tab? Suggest correction