Oops, an error
Loading. Please wait.

Prime Mover bass

version 1
version 1

Whole song

Interactive

by Ghost
2,646 views 15 this week
1 commentread comment
1 2 3 4 5
1 last vote to show rating
add to favorites
×
Save as Personal and add changes to this tab that will be seen only by you. Learn more ›
×
You can save this tab as Personal to edit and correct it or add notes. All changes will be seen only by you. Learn more »
launch autoscroll
font size
0
reset
guitar tuner
backing track
0:00
0:00
edit
Autoscroll
slow
fast
+/-
esc
set tempo
stop
0:03
G|--6-----------------------------------------------6-----------------------------------------------|
D|o------------------------------------------------------------------------------------------------o|
A|o------------------------------------------------------------------------------------------------o|x3
D|--------------------------------------------------------------------------------------------------|
    1 2 3 4 5 6 1 2 3 4 5 6 1 2 3 4 5 6 1 2 3 4 5 6 1 2 3 4 5 6 1 2 3 4 5 6 1 2 3 4 5 6 1 2 3 4 5 6

0:24
G|--------------------------------------------------------------------------------------------------|
D|o------------------------------------------------------------------------------------------------o|
A|o------------------------------------------------------------------------------------------------o|x3
D|--7-----8---\-4-----------1---/-6-----4-----------7-----8---\-4-----------1---/-8-----7-----------|
    1 2 3 4 5 6 1 2 3 4 5 6 1 2 3 4 5 6 1 2 3 4 5 6 1 2 3 4 5 6 1 2 3 4 5 6 1 2 3 4 5 6 1 2 3 4 5 6

0:45
G|-------------------|---------------------------------------------------|
D|-------------------|o-------------------------------------------------o|
A|-------------------|o-------4-----------4-----------4---5-4-----4-----o|
D|-6-6-6-0-----------|--0-0-0-------0-0-0-------0-0-0---0----------------|
   1 2 3 4 5 6 7 8 9    1 2 3 4 5 6 1 2 3 4 5 6 1 2 3 4 5 6 1 2 3 4 5 6

G|-------------------------------------------------------------------------------------------------|
D|-------------------------------------------------------------------------------------------------|
A|-------4-----------4-----------4---5-4-----4-----------4-----------4-----------4---5-4-----4-\---|
D|-0-0-0-------0-0-0-------0-0-0---0---------------0-0-0-------0-0-0-------0-0-0---0---------------|
   1 2 3 4 5 6 1 2 3 4 5 6 1 2 3 4 5 6 1 2 3 4 5 6 1 2 3 4 5 6 1 2 3 4 5 6 1 2 3 4 5 6 1 2 3 4 5 6

1:01
G|---------------------------------------------------|
D|o-------------------------------------------------o|
A|o-------4-----------4-----------4---5-4-----4-----o|
D|--0-0-0-------0-0-0-------0-0-0---0----------------|
    1 2 3 4 5 6 1 2 3 4 5 6 1 2 3 4 5 6 1 2 3 4 5 6

G|-------------------------------------------------------------------------------------------------|
D|-------------------------------------------------------------------------------------------------|
A|-------4-----------4-----------4---5-4-----4-----------4-----------4-----------4---5-4-----4-\---|
D|-0-0-0-------0-0-0-------0-0-0---0---------------0-0-0-------0-0-0-------0-0-0---0---------------|
   1 2 3 4 5 6 1 2 3 4 5 6 1 2 3 4 5 6 1 2 3 4 5 6 1 2 3 4 5 6 1 2 3 4 5 6 1 2 3 4 5 6 1 2 3 4 5 6

1:15
G|------------------------------------------------------------------------------------------------|
D|------------------------------------------------------------------------------------------------|
A|-------------------------------------------------1---1-1-----1---1-1----------------------------|
D|-6---6-6-----6---6-6-----2---2-2-----2---2-2-----------------------------0---0-0-----0---0-0----|
   1 2 3 4 5 6 1 2 3 4 5 6 1 2 3 4 5 6 1 2 3 4 5 6 1 2 3 4 5 6 1 2 3 4 5 6 1 2 3 4 5 6 1 2 3 4 5 6

G|------------------------------------------------------------------------------------------------|
D|------------------------------------------------------------------------------------------------|
A|-------------------------3---3-3-----3---3-3----------------------------------------------------|
D|-2---2-2-----2---2-2-----------------------------6---6-7-----6---6-7-----6---6-7-6-4-7---6-7----|
   1 2 3 4 5 6 1 2 3 4 5 6 1 2 3 4 5 6 1 2 3 4 5 6 1 2 3 4 5 6 1 2 3 4 5 6 1 2 3 4 5 6 1 2 3 4 5 6

1:29
G|------------------------------------------------------------------------------------------------|
D|------------------------------------------------------------------------------------------------|
A|-------------------------------------------------1---1-1-----1---1-1-----5---5-5-----5---5-5----|
D|-6---6-6-----6---6-6-----2---2-2-----2---2-2----------------------------------------------------|
   1 2 3 4 5 6 1 2 3 4 5 6 1 2 3 4 5 6 1 2 3 4 5 6 1 2 3 4 5 6 1 2 3 4 5 6 1 2 3 4 5 6 1 2 3 4 5 6

G|------------------------------------------------------------------------------------------------|
D|-------------4-4-4-2-2-2------------------------------------------------------------------------|
A|-------------------------3---3-3-----3---3-3----------------------------------------------------|
D|-2-2-2-4-4-4-------------------------------------6---6-7-----6---6-7-----6---6-7-6-4-7---6-7----|
   1 2 3 4 5 6 1 2 3 4 5 6 1 2 3 4 5 6 1 2 3 4 5 6 1 2 3 4 5 6 1 2 3 4 5 6 1 2 3 4 5 6 1 2 3 4 5 6

1:44
G|--------------------------------------------------------------------------------------------------|
D|o------------------------------------------------------------------------------------------------o|
A|o------------------------------------------------------------------------------------------------o|
D|--0-----------------------6-----------------------0-----------------------8-----------------------|
    1 2 3 4 5 6 1 2 3 4 5 6 1 2 3 4 5 6 1 2 3 4 5 6 1 2 3 4 5 6 1 2 3 4 5 6 1 2 3 4 5 6 1 2 3 4 5 6

G|-------------------------------------------------------------------------------------------------|
D|-------------------------------------------------------------------------------------------------|
A|-------------------------------------------------------4-----------4-----------4---5-4-----4-\---|
D|-2-----------------------1-----------------------0-0-0-------0-0-0-------0-0-0---0---------------|
   1 2 3 4 5 6 1 2 3 4 5 6 1 2 3 4 5 6 1 2 3 4 5 6 1 2 3 4 5 6 1 2 3 4 5 6 1 2 3 4 5 6 1 2 3 4 5 6

2:05
G|---------------------------------------------------|
D|o-------------------------------------------------o|
A|o-------2-----------2-----------2-----2-2-2-2-----o|x4
D|--3-3-3-------3-3-3-------3-3-3---3-3--------------|
    1 2 3 4 5 6 1 2 3 4 5 6 1 2 3 4 5 6 1 2 3 4 5 6

2:19
G|--------------------------------------------------------------------------------------------------|
D|o------------------------------------------------------------------------------------------------o|
A|o------------------------------------------------------------------------------------------------o|
D|--7-----8---\-4---4-4-----1---/-6-----4---4-4-----7-----8---\-4---4-4-----1---/-8-----7---7-7-----|
    1 2 3 4 5 6 1 2 3 4 5 6 1 2 3 4 5 6 1 2 3 4 5 6 1 2 3 4 5 6 1 2 3 4 5 6 1 2 3 4 5 6 1 2 3 4 5 6

2:34
G|-------------------------------------------------------------------------|
D|-------------------------------------------------------------------------|
A|-------------------------------------------------------------------------|
D|-0-0-0-------0-0-0-------0-0-0-------0-0-0-------------------------------|
   1 2 3 4 5 6 1 2 3 4 5 6 1 2 3 4 5 6 1 2 3 4 5 6 1 2 3 4 5 6 1 2 3 4 5 6

2:39
G|------------------------------------------------------------------------------------------------|
D|------------------------------------------------------------------------------------------------|
A|-------------------------------------------------1---1-1-----1---1-1----------------------------|
D|-6---6-6-----6---6-6-----2---2-2-----2---2-2-----------------------------0---0-0-----0---0-0----|
   1 2 3 4 5 6 1 2 3 4 5 6 1 2 3 4 5 6 1 2 3 4 5 6 1 2 3 4 5 6 1 2 3 4 5 6 1 2 3 4 5 6 1 2 3 4 5 6

G|------------------------------------------------------------------------------------------------|
D|------------------------------------------------------------------------------------------------|
A|-------------------------3---3-3-----3---3-3----------------------------------------------------|
D|-2---2-2-----2---2-2-----------------------------6---6-7-----6---6-7-----6---6-7-6-4-7---6-7----|
   1 2 3 4 5 6 1 2 3 4 5 6 1 2 3 4 5 6 1 2 3 4 5 6 1 2 3 4 5 6 1 2 3 4 5 6 1 2 3 4 5 6 1 2 3 4 5 6

G|------------------------------------------------------------------------------------------------|
D|------------------------------------------------------------------------------------------------|
A|-------------------------------------------------1---1-1-----1---1-1-----5---5-5-----5---5-5----|
D|-6---6-6-----6---6-6-----2---2-2-----2---2-2----------------------------------------------------|
   1 2 3 4 5 6 1 2 3 4 5 6 1 2 3 4 5 6 1 2 3 4 5 6 1 2 3 4 5 6 1 2 3 4 5 6 1 2 3 4 5 6 1 2 3 4 5 6

G|------------------------------------------------------------------------------------------------|
D|-------------4-4-4-2-2-2------------------------------------------------------------------------|
A|-------------------------3---3-3-----3---3-3----------------------------------------------------|
D|-2-2-2-4-4-4-------------------------------------6---6-7-----6---6-7-----6---6-7-6-4-7---6-7----|
   1 2 3 4 5 6 1 2 3 4 5 6 1 2 3 4 5 6 1 2 3 4 5 6 1 2 3 4 5 6 1 2 3 4 5 6 1 2 3 4 5 6 1 2 3 4 5 6

G|------------------------------------------------|
D|-6---6-7-----6---6-7-----6---6-7-6-4-7---6-7----|
A|------------------------------------------------|
D|------------------------------------------------|
  1 2 3 4 5 6 1 2 3 4 5 6 1 2 3 4 5 6 1 2 3 4 5 6

3:11
G|--------------------------------------------------------------------------------------------------|
D|o------------------------------------------------------------------------------------------------o|
A|o------------------------------------------------------------------------------------------------o|
D|--0-----------------------6-----------------------0-----------------------8-----------------------|
    1 2 3 4 5 6 1 2 3 4 5 6 1 2 3 4 5 6 1 2 3 4 5 6 1 2 3 4 5 6 1 2 3 4 5 6 1 2 3 4 5 6 1 2 3 4 5 6

G|--------------------------------------------------------------------------------------------------|
D|o------------------------------------------------------------------------------------------------o|
A|o------------------------------------------------------------------------------------------------o|
D|--0-----0-----0-----0-----6-----6-----6-----6-----0-----0-----0-----0-----8-----8-----8-----8-----|
    1 2 3 4 5 6 1 2 3 4 5 6 1 2 3 4 5 6 1 2 3 4 5 6 1 2 3 4 5 6 1 2 3 4 5 6 1 2 3 4 5 6 1 2 3 4 5 6

3:39
G|-------------------------------------------------|
D|-------------------------------------------------|
A|-------------------------------------------------|
D|-2-2-2-2-2-2-2-2-2-2-2-2-1-1-1-1-1-1-1-1-1-1-----|
   1 2 3 4 5 6 1 2 3 4 5 6 1 2 3 4 5 6 1 2 3 4 5 6 

G|---------------------------------------------------|-----|
D|o-------------------------------------------------o|-----|
A|o-------4-----------4-----------4---5-4-----4-----o|-----|
D|--0-0-0-------0-0-0-------0-0-0---0----------------|-0---|
    1 2 3 4 5 6 1 2 3 4 5 6 1 2 3 4 5 6 1 2 3 4 5 6

            
            
Suggest correction
Creating personal tab
Creating personal tab
You can edit any tab online and save it as your Personal.

You can edit, replace or remove any tab part or add personal notes – all changes will be seen only by you.

Personal tabs can be accessed anytime from any device, even offline.
Learn more »
Give kudos to tab author, rate the tab!
1 2 3 4 5
comments
print report bad tab
1 comment total.
+1 reply
BassNTuba 52 Mar 04, 2014 05:57 PM

Perfect! Thank you.

guest
You may want to rate the tab now too:
select rating
Wanna post a correction for this tab? Suggest correction