Oops, an error
Loading. Please wait.
We have an official Square Hammer tab made by UG professional guitarists. Check out the tab »
×

Square Hammer tab

version 1
version 1

Whole song

  • It sounds correct and fits good.
  • This is in correct D-standard tuning. There's no s... Show more

Interactive

by Ghost
99,833 views 1,341 this week
15 commentsread comments
1 2 3 4 5
x 49
add to favorites
×
Save as Personal and add changes to this tab that will be seen only by you. Learn more ›
×
You can save this tab as Personal to edit and correct it or add notes. All changes will be seen only by you. Learn more »
launch autoscroll
font size
0
reset
how to read this tab
guitar tuner
backing track
0:00
0:00
edit
Autoscroll
slow
fast
+/-
esc
set tempo
stop
[Intro]

e|---------------------------------------------------------------------------| (8x)
B|---------------------------------------------------------------------------|
G|---------------------------------------------------------------------------|
D|---------------------------------------------------------------------------|
A|--5--7-8----7-8-----7-8-----7-8--------------------------------------------|
D|----------8------7-------10-----10-----------------------------------------|


[Verse]

              (3x)                             (1x)
e|------------------------------|--------------------------------------------| (2x)
B|------------------------------|--------------------------------------------|
G|--7------3------2------5------|--------------------------------------------|
D|--7-(4x)-3-(3x)-2-(5x)-5-(4x)-|--------------------------------------------|
A|--5------1------0------3------|------5--7-8----7-8-----7-8-----7-8---------|
D|------------------------------|--------------8------7-------10-----10------|
 |*************PM***************|


[Chorus]

e|--------------------------------------------------------------------------------------|
B|--------------------------------------------------------------------------------------|
G|--7--------------------10-------5---------------7----------------------5--------------|
D|--7-(5x)--8-------10---10-(5x)--5-(3x)----------7-(5x)-8-------3-------5-(3x)---------|
A|--5-------8-(3x)-8-----8--------3---------0-3---5------8-(6x)--3-(5x)--3--------0-3---|
D|----------8-----8-----------------------5--------------8-------3--------------5-------|

e|----------------------------------------------------------------------------------|
B|----------------------------------------------------------------------------------|
G|--7--------------------10-------5--------------7-----------------------5----------|
D|--7-(5x)--8-------10---10-(5x)--5--------------7-(5x)-8-------3---5-3--5----------|
A|--5-------8-(3x)-8-----8--------3-(3x)---0-3---5------8-(6x)--3-3------3----0-3---|
D|----------8-----8----------------------5--------------8-------3-----------5-------|


[Verse]

e|-------------------------------------|
B|-------------------------------------|
G|-------------------------------------|
D|-------------------------------------|
A|--5--7-8----7-8-----7-8-----7-8------|
D|----------8------7-------10-----10---|

              (3x)                             (1x)
e|------------------------------|--------------------------------------------| (2x)
B|------------------------------|--------------------------------------------|
G|--7------3------2------5------|--------------------------------------------|
D|--7-(4x)-3-(3x)-2-(5x)-5-(4x)-|--------------------------------------------|
A|--5------1------0------3------|------5--7-8----7-8-----7-8-----7-8---------|
D|------------------------------|--------------8------7-------10-----10------|
 |*************PM***************|


[Chorus]

e|--------------------------------------------------------------------------------------|
B|--------------------------------------------------------------------------------------|
G|--7--------------------10-------5---------------7----------------------5--------------|
D|--7-(5x)--8-------10---10-(5x)--5-(3x)----------7-(5x)-8-------3-------5-(3x)---------|
A|--5-------8-(3x)-8-----8--------3---------0-3---5------8-(6x)--3-(5x)--3--------0-3---|
D|----------8-----8-----------------------5--------------8-------3--------------5-------|

e|----------------------------------------------------------------------------------|
B|----------------------------------------------------------------------------------|
G|--7--------------------10-------5--------------7-----------------------5----------|
D|--7-(5x)--8-------10---10-(5x)--5--------------7-(5x)-8-------3---5-3--5----------|
A|--5-------8-(3x)-8-----8--------3-(3x)---0-3---5------8-(6x)--3-3------3----0-3---|
D|----------8-----8----------------------5--------------8-------3-----------5-------|


[Solo]

e|-------------------------------|
B|-------------------------------|
G|----------------10------12-----|
D|--5--5---5-7-8-8---10------10--|
A|--5--5---5-7-8-----10-10-------|
D|--5--5---5-7-8-----10----------|

              (3x)                             (1x)
e|------------------------------|--------------------------------------------|
B|------------------------------|--------------------------------------------|
G|--7------3------2------5------|--------------------------------------------|
D|--7-(4x)-3-(3x)-2-(5x)-5-(4x)-|--------------------------------------------|
A|--5------1------0------3------|------5--7-8----7-8-----7-8-----7-8---------|
D|------------------------------|--------------8------7-------10-----10------|

              (3x)                             (1x)
e|------------------------------|--------------------------------------------|
B|------------------------------|--------------------------------------------|
G|--7------3------2------5------|-----------------10------12-----------------|
D|--7-(4x)-3-(3x)-2-(5x)-5-(4x)-|---5--5---5-7-8-8---10-----10---------------|
A|--5------1------0------3------|---5--5---5-7-8-----10-10-------------------|
D|------------------------------|---5--5---5-7-8-----10----------------------|


[Bridge]

e|-------------------------------------------|
B|-------------------------------------------|
G|-------------------------------------------|
D|-------------------------------------------|
A|--5--7-8----7-8-----7-8-----7-8------------|
D|----------8------7-------10-----10---------|


[Chorus]

e|--------------------------------------------------------------------------------------|
B|--------------------------------------------------------------------------------------|
G|--7--------------------10-------5---------------7----------------------5--------------|
D|--7-(5x)--8-------10---10-(5x)--5-(3x)----------7-(5x)-8-------3-------5-(3x)---------|
A|--5-------8-(3x)-8-----8--------3---------0-3---5------8-(6x)--3-(5x)--3--------0-3---|
D|----------8-----8-----------------------5--------------8-------3--------------5-------|

e|----------------------------------------------------------------------------------|
B|----------------------------------------------------------------------------------|
G|--7--------------------10-------5--------------7-----------------------5----------|
D|--7-(5x)--8-------10---10-(5x)--5--------------7-(5x)-8-------3---5-3--5----------|
A|--5-------8-(3x)-8-----8--------3-(3x)---0-3---5------8-(6x)--3-3------3----0-3---|
D|----------8-----8----------------------5--------------8-------3-----------5-------|


[Outro]

e|--------------------------------------|
B|--------------------------------------|
G|--7-----------------------5-----------|
D|--7-(5x)--8-------3-------5-(6x)------|
A|--5-------8-(6x)--3-(5x)--3-----------|
D|----------8-------3-------------------|

e|--------------------------------------------------------------|
B|--------------------------------------------------------------|
G|--7-----------------------5---12--10--9--7--------------------|
D|--7-(5x)--8-------3-------5---x---x---x--7--------------------|
A|--5-------8-(6x)--3-(5x)--3---10--8---7--5--------------------|
D|----------8-------3-------------------------------------------|



************************************

| x  Dead note

************************************

            
            
Suggest correction
Creating personal tab
Creating personal tab
You can edit any tab online and save it as your Personal.

You can edit, replace or remove any tab part or add personal notes – all changes will be seen only by you.

Personal tabs can be accessed anytime from any device, even offline.
Learn more »
comments
print report bad tab
15 comments total. Showing first comments.
+3 reply
samyueru 52 Sep 19, 2016 02:51 PM

Awesome tab dude!

+2 reply
Rynoburgy 10 Sep 25, 2016 05:05 PM

Awesome! Sounds perfect.

+1 reply
race5144 10 Oct 08, 2016 10:00 PM

Im Loving this song! hopefully that solo's up soon!

guest
You may want to rate the tab now too:
select rating
Wanna post a correction for this tab? Suggest correction