Oops, an error
Loading. Please wait.
We have an official Square Hammer tab made by UG professional guitarists. Check out the tab »
×

Square Hammer tab

version 2
version 2

Whole song

  • It sounds correct and fits good.
  • This is in correct D-standard tuning. There's no s... Show more

Interactive

by Ghost
12,061 views 156 this week
5 commentsread comments
1 2 3 4 5
x 9
add to favorites
×
Save as Personal and add changes to this tab that will be seen only by you. Learn more ›
×
You can save this tab as Personal to edit and correct it or add notes. All changes will be seen only by you. Learn more »
launch autoscroll
font size
0
reset
how to read this tab
guitar tuner
backing track
0:00
0:00
edit
Autoscroll
slow
fast
+/-
esc
set tempo
stop
Author
Difficulty
About this tab version
It sounds correct and fits good. Was this info helpful? Yes No
Ghost - Square Hammer

Some people play it on drop d but it can be played on E too.
Any correction will be welcome

[Intro]

e|---------------------------------------------------------------------------|
B|---------------------------------------------------------------------------|
G|---------------------------------------------------------------------------|
D|--7-7-7-7---------------5-5-5-5-5--x3--------------------------------------|
A|--5-5-5-5-8-8-8-7-7-7-7-3-3-3-3-3------------------------------------------|
E|----------6-6-6-7-5-5-5----------------------------------------------------|

e|---------------------------------------------------------------------------|
B|---------------------------------------------------------------------------|
G|---------------------------------------------------------------------------|
D|---------------------------------------------------------------------------|
A|--5-7-8---7-8---7-8---7-8-------x1-----------------------------------------|
E|--------6-----5-----8-----8------------------------------------------------|

[Verse]

e|---------------------------------------------------------------------------|
B|---------------------------------------------------------------------------|
G|---------------------------------------------------------------------------|
D|--7-7-7-7---------------5-5-5-5-5--x3--------------------------------------|
A|--5-5-5-5-8-8-8-7-7-7-7-3-3-3-3-3------------------------------------------|
E|----------6-6-6-5-5-5-5----------------------------------------------------|
 Pm--------------------------------


e|---------------------------------------------------------------------------|
B|---------------------------------------------------------------------------|
G|---------------------------------------------------------------------------|
D|---------------------------------------------------------------------------|
A|--5-7-8---7-8---7-8---7-8-------x1-----------------------------------------|
E|--------6-----5-----8-----8------------------------------------------------|


e|---------------------------------------------------------------------------|
B|---------------------------------------------------------------------------|
G|---------------------------------------------------------------------------|
D|--7-7-7-7---------------5-5-5-5-3--x3--------------------------------------|
A|--5-5-5-5-8-8-8-7-7-7-7-3-3-3-3-3------------------------------------------|
E|----------6-6-6-5-5-5-5----------------------------------------------------|
 Pm--------------------------------


e|---------------------------------------------------------------------------|
B|---------------------------------------------------------------------------|
G|---------------------------------------------------------------------------|
D|---------------------------------------------------------------------------|
A|--5-7-8---7-8---7-8---7-8-------x1-----------------------------------------|
E|--------6-----5-----8-----8------------------------------------------------|


[Chorus]

e|---------------------------------------------------------------------------|
B|---------------------------------------------------------------------------|
G|---------------------------------------------------------------------------|
D|--7-7-7-7-------------10---------5-5---------------------------------------|
A|--5-5-5-5-8-8--5/8-10----3-3-3-3-3-3-----3---------------------------------|
E|----------6-6------------1-1-1-1-----3-5-----------------------------------|

e|---------------------------------------------------------------------------|
B|---------------------------------------------------------------------------|
G|---------------------------------------------------------------------------|
D|--7-7-7-7---------------5-5------------------------------------------------|
A|--5-5-5-5-8-8-8-3-3-3-3-3-3-----3------------------------------------------|
E|----------6-6-6-1-1-1-1-----3-5--------------------------------------------|


e|---------------------------------------------------------------------------|
B|---------------------------------------------------------------------------|
G|---------------------------------------------------------------------------|
D|--7-7-7-7-------------10---------5-5---------------------------------------|
A|--5-5-5-5-8-8--5/8-10----3-3-3-3-3-3-----3---------------------------------|
E|----------6-6------------1-1-1-1-----3-5-----------------------------------|

e|---------------------------------------------------------------------------|
B|---------------------------------------------------------------------------|
G|---------------------------------------------------------------------------|
D|--7-7-7-7---------------5---3----------------------------------------------|
A|--5-5-5-5-8-8-8-----3---------3--------------------------------------------|
E|----------6-6-6-1-1---1---1------------------------------------------------|


[Bridge]

e|---------------------------------------------------------------------------|
B|---------------------------------------------------------------------------|
G|---------------------------------------------------------------------------|
D|---------3-2-3---2-3-------------------------------------------------------|
A|-5-5-----1-----2-----------------------------------------------------------|
E|-3-3-3-5-------------------------------------------------------------------|


[Solo]

e|--------------------------5----|-------------------------------------------|
B|--------------5-----6----------|-------------------------------------------|
G|------5-7-------------------7--|--7p5-7p5---7-7p5-7p5---5-7b9r7------------|
D|--5-7-----7-7---7-7---7-7------|----------7-----------7--------------------|
A|-------------------------------|-------------------------------------------|
E|-------------------------------|-------------------------------------------|

e|-----------------------|---------------------------------------------------|
B|----5b6r5--------------|----5-6---5-6---5-6---5-6--------------------------|
G|--7-------5------------|--7-----------------5-----5------------------------|
D|--------------------5--|--------8-----7------------------------------------|
A|------------6b7r6-8----|---------------------------------------------------|
E|-----------------------|---------------------------------------------------|
W
e|-------------------------------|----------------5--------------------------|
B|-------------------------------|------------------6-6-6-5-5----------------|
G|--5/7-7-5/7-5-5-5/7-7-5/7-5-5--|--5/7-7-5/7-5-5-------------7--------------|
D|--5/7-7-5/7-5-5-5/7-7-5/7-5-5--|--5/7-7-5/7-5-5---------------7------------|
A|--3/5-5-3/5-3-3-3/5-5-3/5-3-3--|--3/5-5-3/5-3-3----------------------------|
E|-------------------------------|-------------------------------------------|

e|------------------------------|--------------------------------------------------|
B|--13h15-15-17b18r17-15-13-----|--13h15p13----13h15p13----13h15p13----13-13-15-15-|
G|------------------------------|--------------------------------------------------|
D|------------------------------|--------------------------------------------------|
A|--------------------------15--|-----------15----------15----------15-------------|
E|------------------------------|--------------------------------------------------|



[Outro]


e|---------------------------------------------------------------------------|
B|---------------------------------------------------------------------------|
G|---------------------------------------------------------------------------|
D|--7-7-7-7---------------5-5-5-5---x4---------------------------------------|
A|--5-5-5-5-8-8-8-3-3-3-3-3-3-3-3--------------------------------------------|
E|----------6-6-6-1-1-1-1----------------------------------------------------|

Structure

Intro
Verse
Chorus
Verse
Chorus
Bridge
Solo
Chorus
Outro


************************************

| x  Dead note
| /  Slide up

************************************

            
            
Suggest correction
Creating personal tab
Creating personal tab
You can edit any tab online and save it as your Personal.

You can edit, replace or remove any tab part or add personal notes – all changes will be seen only by you.

Personal tabs can be accessed anytime from any device, even offline.
Learn more »
comments
print report bad tab
5 comments total. Showing first comments.
+2 reply
DowndropRain261 20 Nov 19, 2016 09:20 AM

e|--------------------------------------------------------------
B|--------------------------------------------------------------
G|--------------------------------------------------------------
D|--------------------------------------------------------------
A|--5--7-8---7-8---7-8---7-8------------------------------------
E|---------6-----5-----8-----8----------------------------------
I'm sure that main riff isn't right.Here is the right version.
But another parts are good.4 stars

0 reply
lucasreinaud 54 Nov 19, 2016 10:36 AM

Yes you are right downdroprain261. I wrote it wrong. I corrected it. Thank you!

+1 reply
Nameless_Ghoul_Aether 10 May 21, 2017 11:39 PM

Pretty sure Ghost plays it in D Tuning

guest
You may want to rate the tab now too:
select rating
Wanna post a correction for this tab? Suggest correction