Oops, an error
Loading. Please wait.
We have an official Year Zero tab made by UG professional guitarists. Check out the tab »
×

Year Zero bass

version 1
version 1

Whole song

  • The song is way easier to play when the bass is in D tuning and not just drop D.

Interactive

by Ghost
11,141 views 45 this week
1 commentread comment
1 2 3 4 5
x 11
add to favorites
×
Save as Personal and add changes to this tab that will be seen only by you. Learn more ›
×
You can save this tab as Personal to edit and correct it or add notes. All changes will be seen only by you. Learn more »
launch autoscroll
font size
0
reset
guitar tuner
backing track
0:00
0:00
edit
Autoscroll
slow
fast
+/-
esc
set tempo
stop
I can't view this on the site for some reason.
This is a test.

0:15
G|-----------------------------------------------------------------|
D|-----------------------------------------------------------------|
A|-------------5---------------5---------------5---------------5---|
D|-0-----0---------0-----0---------0-----0---------0-----0---------|
   1 + 2 + 3 + 4 + 1 + 2 + 3 + 4 + 1 + 2 + 3 + 4 + 1 + 2 + 3 + 4 +

G|-----------------------------------------------------------------|
D|-----------------------------------------------------------------|
A|-------------5---------------5---------------5-------------------|
D|-0-----0---------0-----0---------0-----0---------0-----0---------|
   1 + 2 + 3 + 4 + 1 + 2 + 3 + 4 + 1 + 2 + 3 + 4 + 1 + 2 + 3 + 4 +

0:31
G|------------------------------------------------------------------|
D|o-----------------------------------------------------------------|
A|o-----------------------------------------------------------------|
D|--0---0---0---0---0---0---0---0---0---0---0---0---0---0---0---0---|
    1 + 2 + 3 + 4 + 1 + 2 + 3 + 4 + 1 + 2 + 3 + 4 + 1 + 2 + 3 + 4 +

G|------------------------------------------------------------------|
D|-----------------------------------------------------------------o|
A|-----------------------------------------------------------------o|
D|-0---0---0---0---0---0---0---0---0---0---0---0---0---0---0---1----|
   1 + 2 + 3 + 4 + 1 + 2 + 3 + 4 + 1 + 2 + 3 + 4 + 1 + 2 + 3 + 4 +

1:02
G|-----------------------------------------------------------------|
D|-----------------------------------------------------------------|
A|-----------------3---3---3---3-----------------------------------|
D|-0---0---0---0-------------------1---1---1---1---0---0---0---0---|
   1 + 2 + 3 + 4 + 1 + 2 + 3 + 4 + 1 + 2 + 3 + 4 + 1 + 2 + 3 + 4 +

G|-----------------------------------------------------------------|
D|-----------------------------------------------------------------|
A|-----------------3---3---3---3---1---1---1---1---9---9-----------|
D|-0---0---0---0---------------------------------------------------|
   1 + 2 + 3 + 4 + 1 + 2 + 3 + 4 + 1 + 2 + 3 + 4 + 1 + 2 + 3 + 4 +

1:18
G|-----------------------------------------------------------------|
D|-----------------------------------------------------------------|
A|-----5---3---5-------5---3---5---3-3-3-3-----3-5-6-6-6-6-6-6-6-6-|
D|-0---------------0-----------------------5-5---------------------|
   1 + 2 + 3 + 4 + 1 + 2 + 3 + 4 + 1 + 2 + 3 + 4 + 1 + 2 + 3 + 4 +

G|-----------------------------------------------------------------|
D|-------------------------------------------------5-5-5-5-5-5-5-5-|
A|-----5---3---5-------5---3---5---3-3-3-3-----3-3-----------------|
D|-0---------------0-----------------------5-5---------------------|
   1 + 2 + 3 + 4 + 1 + 2 + 3 + 4 + 1 + 2 + 3 + 4 + 1 + 2 + 3 + 4 +

G|-----------------------------------------------------------------|
D|-------------------------------------------------------3-5-3-----|
A|-----5---3---5-------5---3---5---3-3-3-3-----3-5-6-6-6-------6-6-|
D|-0---------------0-----------------------5-5---------------------|
   1 + 2 + 3 + 4 + 1 + 2 + 3 + 4 + 1 + 2 + 3 + 4 + 1 + 2 + 3 + 4 +

G|-----------------------------------------------------------------|
D|-------------------------------------------------5-5-5-5-5-5-5-5-|
A|-----5---3---5-------5---3---5---3-3-3-3-----3-3-----------------|
D|-0---------------0-----------------------5-5---------------------|
   1 + 2 + 3 + 4 + 1 + 2 + 3 + 4 + 1 + 2 + 3 + 4 + 1 + 2 + 3 + 4 +

1:51
G|------------------------------------------------------------------|
D|o-----------------------------------------------------------------|
A|o-----------------------------------------------------------------|
D|--0---0---0---0---0---0---0---0---0---0---0---0---0---0---0---0---|
    1 + 2 + 3 + 4 + 1 + 2 + 3 + 4 + 1 + 2 + 3 + 4 + 1 + 2 + 3 + 4 +

G|------------------------------------------------------------------|
D|-----------------------------------------------------------------o|
A|-----------------------------------------------------------------o|
D|-0---0---0---0---0---0---0---0---0---0---0---0---0---0---0---1----|
   1 + 2 + 3 + 4 + 1 + 2 + 3 + 4 + 1 + 2 + 3 + 4 + 1 + 2 + 3 + 4 +

2:23
G|-----------------------------------------------------------------|
D|-----------------------------------------------------------------|
A|-----------------3---3---3---3-----------------------------------|
D|-0---0---0---0-------------------1---1---1---1---0---0---0---0---|
   1 + 2 + 3 + 4 + 1 + 2 + 3 + 4 + 1 + 2 + 3 + 4 + 1 + 2 + 3 + 4 +

G|-----------------------------------------------------------------|
D|-----------------------------------------------------------------|
A|-----------------3---3---3---3---1---1---1---1-------------------|
D|-0---0---0---0---------------------------------------------------|
   1 + 2 + 3 + 4 + 1 + 2 + 3 + 4 + 1 + 2 + 3 + 4 + 1 + 2 + 3 + 4 +

2:39
G|-----------------------------------------------------------------|
D|-----------------------------------------------------------------|
A|-----5---3---5-------5---3---5---3-3-3-3-----3-5-6-6-6-6-6-6-6-6-|
D|-0---------------0-----------------------5-5---------------------|
   1 + 2 + 3 + 4 + 1 + 2 + 3 + 4 + 1 + 2 + 3 + 4 + 1 + 2 + 3 + 4 +

G|---------------------------------------------------------------------------------|
D|-------------------------------------------------5---5---5---5-------------------|
A|-----5---3---5-------5---3---5---3-3-3-3-----3-3---5---5---5---5-4-4-4-4-4-5-4-5-|
D|-0---------------0-----------------------5-5-------------------------------------|
   1 + 2 + 3 + 4 + 1 + 2 + 3 + 4 + 1 + 2 + 3 + 4 + 1 + 2 + 3 + 4 +

2:56
G|-----------------------------------------------------------------|
D|-----------------------------------------------------------------|
A|---5-5-5-5-5-5-0-1-1-1-1-1-1-1-1-0-0-0-0-0-0-0-0-4-4-4-4-4-4-4-5-|
D|-----------------------------------------------------------------|
   1 + 2 + 3 + 4 + 1 + 2 + 3 + 4 + 1 + 2 + 3 + 4 + 1 + 2 + 3 + 4 +

G|-----------------------------------------------------------------|
D|-----------------------------------------------------------------|
A|-5-5-5-5-5-5-5-5-1-1-1-1-1-1-1-1-0-0-0-0-0-0-0-0-3---3---3---3---|
D|---------------------------------------------------5---5---5---5-|
   1 + 2 + 3 + 4 + 1 + 2 + 3 + 4 + 1 + 2 + 3 + 4 + 1 + 2 + 3 + 4 +

G|-----------------------------------------------------------------|
D|-----------------------------------------------------------------|
A|-5-5-5-5-5-5-5-0-1-1-1-1-5-5-5-5-3-3-3-3-3-3-3-3-4-4-4-4-4-4-4-5-|
D|-----------------------------------------------------------------|
   1 + 2 + 3 + 4 + 1 + 2 + 3 + 4 + 1 + 2 + 3 + 4 + 1 + 2 + 3 + 4 +

G|-----------------------------------------------------------------|
D|-----------------------------------------------------------------|
A|-5-5-5-5-5-5-5-0-1-1-1-1-1-1-1-1-0-0-0-0-0-0-0-0-4-4-4-4-4-4-4-5-|
D|-----------------------------------------------------------------|
   1 + 2 + 3 + 4 + 1 + 2 + 3 + 4 + 1 + 2 + 3 + 4 + 1 + 2 + 3 + 4 +

3:28
G|-----------------------------------------------------------------|
D|-------------2-3-------------------------------------------------|
A|-----------------1-1-1-1-1-1-1-1-0-0-0-0-0-0-0-0-4-4-4-4-4-4-4-5-|
D|---0-3-0-3-0-----------------------------------------------------|
   1 + 2 + 3 + 4 + 1 + 2 + 3 + 4 + 1 + 2 + 3 + 4 + 1 + 2 + 3 + 4 +

G|-----------------------------------------------------------------|
D|-----------------------------------------------------------------|
A|-5-5-5-5-5-5-5-5-1-1-1-1-1-1-1-1-0-0-0-0-0-0-0-0-3---3---3---3---|
D|---------------------------------------------------5---5---5---5-|
   1 + 2 + 3 + 4 + 1 + 2 + 3 + 4 + 1 + 2 + 3 + 4 + 1 + 2 + 3 + 4 +

G|-----------------------------------------------------------------|
D|-----------------------------------------------------------------|
A|-5-5-5-5-5-5-5-0-1-1-1-1-5-5-5-5-3-3-3-3-3-3-3---0-0-0-0-0-0-0-5-|
D|-----------------------------------------------5-----------------|
   1 + 2 + 3 + 4 + 1 + 2 + 3 + 4 + 1 + 2 + 3 + 4 + 1 + 2 + 3 + 4 +

G|-----------------------------------------------------------------|
D|-------------------------------------------------------0-2-3-5-7-|
A|-5-5-5-5-5-5-5-5-1-1-1-1-1-3-1-1-0-0-0-0-0-0-0-0-0-1-3-----------|
D|-----------------------------------------------------------------|
   1 + 2 + 3 + 4 + 1 + 2 + 3 + 4 + 1 + 2 + 3 + 4 + 1 + 2 + 3 + 4 +

4:00
G|-----------------------------------------------------------------|
D|-----------------------------------------------------------------|
A|---------------------------------3-3-3-3-3-3-3-3-----------------|
D|-0-0-------------0-------------------------------1-1-1-1-1-1-1-1-|
   1 + 2 + 3 + 4 + 1 + 2 + 3 + 4 + 1 + 2 + 3 + 4 + 1 + 2 + 3 + 4 +

G|-----------------------------------------------------------------|
D|-----------------------------------------------3-5-5-5-5-5-5-5-5-|
A|-----5-5-3-3-5-5-----5-5-3-3-5-5-3-3-3-3-3-3-3-------------------|
D|-0-0-------------0-0---------------------------------------------|
   1 + 2 + 3 + 4 + 1 + 2 + 3 + 4 + 1 + 2 + 3 + 4 + 1 + 2 + 3 + 4 +

G|------------------------------------------------------------------|
D|o-----------------------------------------------------------------|
A|o-----5-5-3-3-5-5-----5-5-3-3-5-5-3-3-3-3-3-3-3-3-----------------|
D|--0-0-------------0-0-----------------------------1-1-1-1-1-1-1-1-|
    1 + 2 + 3 + 4 + 1 + 2 + 3 + 4 + 1 + 2 + 3 + 4 + 1 + 2 + 3 + 4 +

G|------------------------------------------------------------------|
D|-----------------------------------------------3-5-5-5-5-5-5-5-5-o|
A|-----5-5-3-3-5-5-----5-5-3-3-5-5-3-3-3-3-3-3-3-------------------o|
D|-0-0-------------0-0----------------------------------------------|
   1 + 2 + 3 + 4 + 1 + 2 + 3 + 4 + 1 + 2 + 3 + 4 + 1 + 2 + 3 + 4 +
Tabbed by Dave Vucko

            
            
Suggest correction
Creating personal tab
Creating personal tab
You can edit any tab online and save it as your Personal.

You can edit, replace or remove any tab part or add personal notes – all changes will be seen only by you.

Personal tabs can be accessed anytime from any device, even offline.
Learn more »
comments
print report bad tab
1 comment total.
-1 reply
Aukustus 334 Apr 25, 2014 03:03 AM

There's only one d note on the A string in the beginning, not two.

guest
You may want to rate the tab now too:
select rating
Wanna post a correction for this tab? Suggest correction