Oops, an error
Loading. Please wait.

Panthalassa Lampetra Tridentata bass

172 views 3 this week
no commentswrite comment
1 2 3 4 5
3 more votes to show rating
add to favorites
×
Save as Personal and add changes to this tab that will be seen only by you. Learn more ›
×
You can save this tab as Personal to edit and correct it or add notes. All changes will be seen only by you. Learn more »
launch autoscroll
font size
0
reset
guitar tuner
edit
Autoscroll
slow
fast
+/-
esc
set tempo
stop
-------------------------------------------------------------------------------
                PANTHALASSA (LAMPETRA TRIDENTATA) – Giant Squid
-------------------------------------------------------------------------------

Tabbed By : The Darth Trainman
e-mail: thedarthtrainman@google.com

Tuning: BEADG

After drums and guitar enter...

Riff A:  
G|-------------------------|
D|-------3-----------------|
A|-3---3---4-3-----------3-|
E|---5---------5-4---5-6---|
B|-----------------6-------|

Riff A x5

The sixth time...
Riff A1:
G|-------------------------------------------------|
D|-------------------------------------------------|
A|-3---------------------3-----------------------3-|
E|---------5---5-4---5-6---------------------5-6---|
B|-----------------6-------1---------------6-------|

Then A x2

Then A1 again.

Then A x4

0:56

Riff B: 
G|--------------------------------------------------|
D|--------------------------------------------------|
A|-3---3-6-4---------4-4-44-3---3-6-4---------------|
E|---3-------3-6-6-6----------3-------4-6-6-6-6-6-6-|
B|--------------------------------------------------|

Riff B x4

1:40:
Riff B x1
Riff B (but play a low C# on the B-string instead)x1

1:56: Riff C: x2

G|---------------------------------------------------------------------------|
D|------------4-6-----------------------------8---8-6------------------------|
A|-----6----6---------------------9---------8-------------6------------------|
E|-4----764---------4-2---6-7---------7-6-------------------7-6-4-----4-6-7--|
B|---------------------------------------------------------------------------|



G|------------------------|
D|------------------------|
A|------------------------|
E|-7-----------6----------|
B|-------------------7----|

The second time, end with

G|------------------------|
D|------------------------|
A|------------------------|
E|-7-----------6-6---6-6--|
B|------------------------|

2:26:
Riff B x3

But the fourth time, play it...
Riff B1:
G|--------------------------------------------------------------------------|
D|--------------------------------------------------------------------3-3-3-|
A|-3---3-6-4---------4-4-44-3---3-6-4---------6-6-6-4-4-4-4-4-4-4-4-4-------|
E|---3-------3-6-6-6----------3-------4-6-6-6-------------------------------|
B|--------------------------------------------------------------------------|

G|-------------------------|
D|-------------------------|
A|-3---3-6-4---------------|
E|---3-------3-6--66-6--66-|
B|-------------------------|

3:01
Riff C1:
G|----------------------------------------|
D|----------------------------------------|
A|-------6-----------6--------------------|
E|-4---------7-4---------6-7~-6-----2-----|
B|----------------------------------------|
x2

G|---------------------------------------------------------------------------|
D|-------------6-------------------------------------------------------------|
A|---6-----6-------6-------------9-----------8-----------6----------9~-------|
E|-4---7-4---7-------4---6-7-----------6---------6-4-------7-6-4~-7~---6~-2~-|
B|---------------------------------------------------------------------------|

3:38:
Riff A x4
Riff B x3
Riff B1 x1

4:28
G|-------------------------------------------------------------------------|
D|-------------------3-3-3-------------------------------------------3-3-3-|
A|-4-4-4-4-4-4-4-4-4-------3---3-6-4---------6-6-6-4-4-4-4-4-4-4-4-4-------|
E|---------------------------3-------4-6-6-6-------------------------------|
B|-------------------------------------------------------------------------|


Riff D:
G|-------------------------------------------------|
D|-------------------------------------------3-3-3-|
A|-3-3-3-3-3-3-3-3-3-6-6-6-4-4-4-4-4-4-4-4-4-------|
E|-------------------------------------------------|
B|-------------------------------------------------|

Riff B x4 
BUT at 5:13, end Riff B with 

G|------------|
D|----------3-|
A|-4-4-4-3~---|
E|------------|
B|------------|

instead.

Riff D x1

...And finish the song with...
G|-------------------------------------------------|
D|-------------------------------------------------|
A|-3-3-3-3-3-3-3-3-3-6-6-6-------------------------|
E|-------------------------------------------1-1-1-|
B|-------------------------2-2-2-2-2-2-2-2-2-------|

G|-------------------------------------------------|
D|-------------------------------------------------|
A|-------------------------------------------------|
E|-------------------------------------------1-1-1-|
B|-1-1-1-1-1-1-1-1-1-4-4-4-2-2-2-2-2-2-2-2-2-------|

G|-------------------------|
D|-------------------------|
A|-3---3-6-4---------------|
E|---3-------3-6--66-6--66-|
B|-------------------------|

| /  slide up
| \  slide down
| h  hammer-on
| p  pull-off
| +  harmonic
| x  Mute note
===============================================================================

            
            
Suggest correction
Creating personal tab
Creating personal tab
You can edit any tab online and save it as your Personal.

You can edit, replace or remove any tab part or add personal notes – all changes will be seen only by you.

Personal tabs can be accessed anytime from any device, even offline.
Learn more »
Give kudos to tab author, rate the tab!
1 2 3 4 5
comments
print report bad tab
guest
You may want to rate the tab now too:
select rating
Wanna post a correction for this tab? Suggest correction