Oops, an error
Loading. Please wait.

Lamour Toujours tab

version 1
version 1

Whole song

  • It includes the melodic part, the verse and the so... Show more

Interactive

50,214 views 117 this week
1 commentread comment
1 2 3 4 5
x 12
add to favorites
×
Save as Personal and add changes to this tab that will be seen only by you. Learn more ›
×
You can save this tab as Personal to edit and correct it or add notes. All changes will be seen only by you. Learn more »
launch autoscroll
font size
0
reset
how to read this tab
guitar tuner
edit
Autoscroll
slow
fast
+/-
esc
set tempo
stop
Author
---------------------------------Gigi D'Agostino------------------------|
-----------------I'll Fly With You--L'Amour Toujours--Radio Edit--------|
Author: Teodor Petre

Here are the chords to this song.
The first guitar (more rithm-like) palys this:

[Intro]

G D F# Bm

G D          F#            Bm
  I still believe in your eyes;
G             D
I just don't care what
        F#           Bm
You've done in your life.

 G        D          F#           Bm
Baby i'll always be here by your side;
 G              D          F#
Don't leave me waiting too long,
            Bm
Please come by!

..
And somewhere in the song there is background of this:
e|-3-5-3-2--3-5-3-2---|
B|------------------3-|
G|--------------------|
D|--------------------|
A|--------------------|
E|--------------------|

You are, are, are, are, are, are!!!
You are, are, are, are, are, are!!!
You are, are, are, are, are, are!!!

The 2nd guitar (in my band it's used to harmonize) plays another
version of the chords, more melodic:


[Intro]

C Em Am F
follow this pattern in the 4/4 measure. It's easy. I play it in trance-style (heavy
along with the drums -snare, BD all than stuff Gigi uses for the rithm).
the rest of the song is just C Em Am F all over again.
In my band I'm doing the soloes so I must stop sometimes to pick
the following notes:


[Intro]

e|--8-10-12-7-8-10-8--13-12-13-15-13-12-10-12-15-12--13-12-10-8--------|
B|---------------------------------------------------------------------|
G|---------------------------------------------------------------------|
D|---------------------------------------------------------------------|
A|---------------------------------------------------------------------|
E|---------------------------------------------------------------------|
The intro is like Gigi's vocoded voice : ~~i still believe in your eyes (the female
high pitch stuff)


[The solo]

(horn-like sound):
e|------7-6--6--6-7-4--4-4-2-4-2-4--|
B|-4--4----------------------------4|
G|----------------------------------|
D|----------------------------------|
A|----------------------------------|
E|----------------------------------|
Or in another scale:
e|----------------------------------|
B|------3-2--2--2-3-----------------|
G|------------------4--4-2-4-2-4-2--|
D|-4--4----------------------------4|
A|----------------------------------|
E|----------------------------------|

The synth part (bell-like sounds)
e|--0h7-5p0-4p0-|-0h7-5p0-4---|
B|--------------|-----------4-|
G|--------------|-------------|
D|--------------|-------------|
A|--------------|-------------|
E|--------------|-------------|


Various effects are needed here. Ask me and I'll tell you what you should do :).

Now, if you have a "friend" that plays bass (6 or 7 or 8! stringed one), the following
are for him (or you if you can play the bass)


[Bass line]

(trance version)

G|-----------------------------------------------------------------|
D|---------------------------------9-9-9-9-9-9-9-9-5-5-5-5-5-5-5-5-|
A|-5-5-5-5-5-5-5-5-9-9-9-9-9-9-9-9---------------------------------|
E|-----------------------------------------------------------------|

This part is played through out the whole song


[Interlude]

E|-12-17--15--14---12-17--15--14----------------------------|
B|--------------------------------15------------------------|
G|----------------------------------------------------------|
D|----------------------------------------------------------|
A|----------------------------------------------------------|
E|----------------------------------------------------------|

This is played on top of the bass at certain times during the song

you'll be able to hear when it comes up



************************************

| h  Hammer-on
| p  Pull-off 

************************************

            
            
Suggest correction
Creating personal tab
Creating personal tab
You can edit any tab online and save it as your Personal.

You can edit, replace or remove any tab part or add personal notes – all changes will be seen only by you.

Personal tabs can be accessed anytime from any device, even offline.
Learn more »
comments
print report bad tab
1 comment total.
0 reply
Cralis 10 Feb 22, 2010 01:14 PM

Very nice.
This really helped me out, a really cool song to play on guitar. Im not very good yet, but this is easy and people recognize it in like 2 seconds.

guest
You may want to rate the tab now too:
select rating
Wanna post a correction for this tab? Suggest correction