Oops, an error
Loading. Please wait.

Silence solo tab

732 views 1 this week
3 commentsread comments
1 2 3 4 5
3 more votes to show rating
add to favorites
×
Save as Personal and add changes to this tab that will be seen only by you. Learn more ›
×
You can save this tab as Personal to edit and correct it or add notes. All changes will be seen only by you. Learn more »
launch autoscroll
font size
0
reset
how to read this tab
guitar tuner
edit
Autoscroll
slow
fast
+/-
esc
set tempo
stop
Author
-----------------------------------------------------------------------
			Silence-Gigi d'Agostino
-----------------------------------------------------------------------
Tabbed by: Dorin
Emai: tomsofts@yahoo.com

Tuning: standard

This is the solo from Gigi D'Agostino's "Silence" single 2003.
It is my first tab and I am using notepad ( do you know where I can
find a specialized program?).
	I think this song is written in the G# key (or D not sure).
the solo comes in the last part of the song, but you can hear variations in the background.

e|--------------------------------------------8---6-8-8-8-10-8-6---|
B|-8-8--4-6-8--8-9-8-6-4-8--4-6-8-8--8-9-8-6-4---9--------------8-9|
G|-----------------------------------------------------------------|
D|-----------------------------------------------------------------|
A|-----------------------------------------------------------------|
E|-----------------------------------------------------------------|

I'll put the chords after I figure them out. If you knouw better, please e-mail me. Thank you.
tomsofts@yahoo.com.
P.S. : I will try to tab the base-line too.
If you have some tabs of "La Passion" or if you are a ggdag fan, email!

| /  slide up
| \  slide down
| h  hammer-on
| p  pull-off
| ~  vibrato
| +  harmonic
| x  Mute note
===============================================================================

            
            
Suggest correction
Creating personal tab
Creating personal tab
You can edit any tab online and save it as your Personal.

You can edit, replace or remove any tab part or add personal notes – all changes will be seen only by you.

Personal tabs can be accessed anytime from any device, even offline.
Learn more »
Give kudos to tab author, rate the tab!
1 2 3 4 5
comments
print report bad tab
3 comments total.
0 reply
tomsofts 85 Jun 18, 2004 08:00 PM

Can anybody help me here? I do not have time to tab many of gigi's songs, so... wait or send me a version of your tabs if you have any and i will tell you if they are good or not. In that case i will correct them...

0 reply
MyNameIsMikeY 43 Jun 29, 2010 12:22 PM

Hi,
Good tab however I play it a bit differently.

e|---------------------------|
B|-8-8--------8-8--8-9-8-----|
G|------8-10-------------10-8|
D|---------------------------|
A|---------------------------|
E|---------------------------|

e|---------------------------|
B|-8-8--------8-8--8-9-8-----|
G|------8-10-------------10-8|
D|---------------------------|
A|---------------------------|
E|---------------------------|

e|-8-8--------8-8--8-9-8-----|
B|------9-11-------------11-8|
G|---------------------------|
D|---------------------------|
A|---------------------------|
E|---------------------------|

e|---------------------------|
B|-9-9-----8-9-9--9-11-8-----|
G|------10---------------10--|
D|---------------------------|
A|---------------------------|
E|---------------------------|


What do you think?
Regards
MikeY

0 reply
MyNameIsMikeY 43 Jun 29, 2010 12:25 PM

DoH! I always make 1 small mistake.
Last bit should be.

e|---------------------------|
B|-9-9-----8-9-9--9-11-9 8---|
G|------10-----------------10|
D|---------------------------|
A|---------------------------|
E|---------------------------|

MikeY

guest
You may want to rate the tab now too:
select rating
Wanna post a correction for this tab? Suggest correction