Oops, an error
Loading. Please wait.

Lost Horizons tab

1,869 views 3 this week
no commentswrite comment
1 2 3 4 5
2 more votes to show rating
add to favorites
×
Save as Personal and add changes to this tab that will be seen only by you. Learn more ›
×
You can save this tab as Personal to edit and correct it or add notes. All changes will be seen only by you. Learn more »
launch autoscroll
font size
0
reset
how to read this tab
guitar tuner
edit
Autoscroll
slow
fast
+/-
esc
set tempo
stop
Author
Difficulty
L O S T  H O R I Z O N S
Gin Blossoms

  INTRO:
     G
  Gtr. 1* (clean)
|-------------------------|----------------------|----------------------|----------------------|
|T--17---17---15----------|----15--15---15--15---|13---13---12----------|---12--12---12--12----|
|A------------------------|----------------------|----------------------|----------------------|
|B------------------------|----------------------|----------------------|----------------------|
|-------------------------|----------------------|----------------------|----------------------|
|-------------------------|----------------------|----------------------|----------------------|
|  * right channel   let chords ring throughout
|
| Gtr. 2** (w/slight dist)
|----5----5----3----------|----------------------|-5----5----3----------|----------------------|
|T---3----3----3----------|----------------------|-3----3----3----------|----------------------|
|A---0----0----0----------|----------------------|-0----0----0----------|----------------------|
|B------------------------|----------------------|----------------------|----------------------|
|-------------------------|----------------------|----------------------|----------------------|
|-------------------------|----------------------|----------------------|----------------------|
   ** left channel

  G
|----------------------|----------------------|----------------------|----------------------|
|10---10---12----------|----------12-12--12---|10---10---------------|----------------------|
|----------------------|----------------------|----------12---12-----|12---12----0---2---0--|
|----------------------|----------------------|----------------------|----------------------|
|----------------------|----------------------|----------------------|----------------------|
|----------------------|----------------------|----------------------|----------------------|
|
|-5----5----3----------|----------------------|-5----5----3----------|----------------------|
|-3----3----3----------|----------------------|-3----3----3----------|----------------------|
|-0----0----0----------|----------------------|-0----0----0----------|----------------------|
|----------------------|----------------------|----------------------|----------------------|
|----------------------|----------------------|----------------------|----------------------|
|----------------------|----------------------|----------------------|----------------------|

 VERSE 1:
  Cadd9                            D            Cadd9                            D
 1. The  last  horizons    I   can see        Are filled with bars and factories         And
 2. She had   nothing   left to say.          So   she     said   she loved me. 
|---------0------------|-0--------------------|---------0------------|----------------------|
|-3-----------3--------|-----3-----------3----|-3--------------3-----|-----------------3----|
|-0---------------0----|-----------0--2-----0-|-0--------------------|-0---------0--2-----0-|
|-2--------------------|----------------------|-2--------------------|----------------------|
|-3--------------------|----------------------|-3--------------------|----------------------|
|----------------------|----------------------|----------------------|----------------------|
| Rhy. Fig. 1                                                              (end Rhy. Fig. 1)
|----------------------|----------------------|----------------------|----------------------|
|-3--------------------|----------------------|-3--------------------|----------------------|
|-0--------------------|-----------------2----|-0--------------------|-----------------2----|
|-2--------------------|-----------0--2-------|-2--------------------|-----------0--2-------|
|-3--------------------|----------------------|-3--------------------|----------------------|
|----------------------|----------------------|----------------------|----------------------|

  Cadd9                            D            Cadd9                            D
 (w/ Rhy. Fig. 1  1 time)
  in     them  all   we  fight  to  stay        awake.
  And   I stood   there   greatful   for the    lie.
|---------0------------|-0--------------------|---------0------------|-0--------------------|
|-3-----------3--------|-----3-----------3----|-3-----------3--------|-----3-----------3----|
|-0---------------0----|-----------0--2-----0-|-0---------------0----|-----------0--2-----0-|
|-2--------------------|----------------------|-2--------------------|----------------------|
|-3--------------------|----------------------|-3--------------------|----------------------|
|----------------------|----------------------|----------------------|----------------------|

  G                      D/F#                   Em7                    D
  Drink   enough   of   anything           To   make this world look   new   again
  Drink   enough   of   anything           To   make this girl  look   new   again
|-7---------7------7---|-5---------5----------|--3---------3---------|----------------------|
|-8-------------8------|-7------------7-------|--3------------3------|-3----3--3------------|
|-5--------------------|-7----7----------7----|--4------4--------4---|-2-----------2--0-----|
|----------------------|----------------------|----------------------|-0--------------------|
|----------------------|----------------------|----------------------|----------------------|
|----------------------|----------------------|----------------------|----------------------|
| 1    2    3    4       1    2    3    4       1    2    3    4       1    2    3    4      
|-3--------------------|----------------------|-0--------------------|----------------------|
|-3--------------------|-----------------3----|-3--------------------|----------------------|
|-0--------------------|-----------------2----|-0--------------------|----------------------|
|-2--------------------|-----------------0----|-2--------------------|----------------------|
|-2--------------------|----------------------|-2--------------------|----------------------|
|-3--------------------|-----------------2----|-0--------------------|----------------------|

  Cadd9                            D            Cadd9                            D
  Drunk, drunk, drunk    in  the gardens and the graves.
|---------0------------|-0--------------------|---------0------------|-0--------------------|
|-3-----------3--------|-----3-----------3----|-3-----------3--------|-----3-----------3----|
|-0---------------0----|-----------0--2-----0-|-0---------------0----|-----------0--2-----0-|
|-2--------------------|----------------------|-2--------------------|----------------------|
|-3--------------------|----------------------|-3--------------------|----------------------|
|----------------------|----------------------|----------------------|----------------------|
|
|----------------------|----------------------|----------------------|----------------------|
|-3--------------------|----------------------|-3--------------------|----------------------|
|-0--------------------|-----------------2----|-0--------------------|-----------------2----|
|-2--------------------|-----------0--2-------|-2--------------------|-----------0--2-------|
|-3--------------------|----------------------|-3--------------------|----------------------|
|----------------------|----------------------|----------------------|----------------------|

 Bridge
  G
|-3--------------------|-----------------3----|-3---------------3----|----3--------3--------|
|-3--------------------|--------------------3-|-3------------------3-|-------3--------------|
|-0--------------------|--------------0-------|-0------------0-------|-0--------0-----------|
|-0--------------------|----------------------|-0--------------------|----------------------|
|-2--------------------|----------------------|-2--------------------|----------------------|
|-3--------------------|----------------------|-3--------------------|----------------------|
|
|-3--------------------|(3)-------------------|(3)-------------------|----------------------|
|-3--------------------|(3)-------------------|(3)-------------------|----------------------|
|-0--------------------|(0)-------------------|(0)-------------------|----------------------|
|-0--------------------|(0)-------------------|(0)-------------------|----------------------|
|-2--------------------|(2)-------------------|(2)-------------------|----------------------|
|-3--------------------|(3)-------------------|(3)-------------------|----------------------|

  Cadd9       Dsus2      Cadd9      Dsus2       Cadd9      Dsus2       Em7        Dsus2   
  Turn summer trees to   bone  and  ice.   Turn insect    songs        against the night
|----0---------0-------|----0---------0-------|----0---------0-------|----0---------0-------|
|-------3---------3----|-------3---------3----|-------3---------3----|-------3---------3----|
|----------0---------0-|----------0---------0-|----------0---------0-|----------0---------0-|
|----------------------|----------------------|----------------------|----------------------|
|----------------------|----------------------|----------------------|----------------------|
|----------------------|----------------------|----------------------|----------------------|
|
|----0---------0-------|----0---------0-------|----0---------0-------|----0---------0-------|
|-------3---------3----|-------3---------3----|-------3---------3----|-------3---------3----|
|----------0---------0-|----------0---------0-|----------0---------0-|----------0---------0-|
|-------------0--------|-------------0--------|-------------0--------|-2-----------0--------|
|-3--------------------|-3--------------------|-3--------------------|----------------------|
|----------------------|----------------------|----------------------|----------------------|

  Cadd9       Dsus2      Em7        Dsus2       Cadd9      Dsus2       Em7         Dsus2
 With words we build and words   we break. I'm drunk, drunk, drunk in the gardens and the
|----0---------0-------|----0---------0-------|----0---------0-------|----0---------0-------|
|-------3---------3----|-------3---------3----|-------3---------3----|-------3---------3----|
|----------0---------0-|----------0---------0-|----------0---------0-|----------0---------0-|
|----------------------|----------------------|----------------------|----------------------|
|----------------------|----------------------|----------------------|----------------------|
|----------------------|----------------------|----------------------|----------------------|
|
|----0---------0-------|----0---------0-------|----0---------0-------|----0---------0-------|
|-------3---------3----|-------3---------3----|-------3---------3----|-------3---------3----|
|----------0---------0-|----------0---------0-|----------0---------0-|----------0---------0-|
|-------------0--------|-2-----------0--------|-------------0--------|-2-----------0--------|
|-3--------------------|----------------------|-3--------------------|----------------------|
|----------------------|----------------------|----------------------|----------------------|

 SOLO:
  G
  graves
|----------------------|----------------------|----------------------|----------1/2---r-----|
|-----------15---------|-----------13---------|-----------12---------|-12--12--12^(12)-12---|
|----------------------|-----12---------------|-----12---------------|--------------------12|
|12--------------------|-12-------------------|-12-------------------|----------------------|
|----------------------|----------------------|----------------------|----------------------|
|----------------------|----------------------|----------------------|----------------------|
|
|-3--------------------|(3)-------------------|----------------------|----------------------|
|-3--------------------|(3)-------------------|----------------------|----------------------|
|-0--------------------|(0)-------------------|----------------------|----------------------|
|-0--------------------|(0)-------------------|----------------------|----------------------|
|-2--------------------|(2)-------------------|----------------------|----------------------|
|-3--------------------|(3)-------------------|----------------------|----------------------|

|----------------------|----------------------|----------------------|--------1/2---r-------|
|-----------15---------|-----------13---------|-----------12---------|-12-12-12^(12)-12-----|
|----12----------------|-----12---------------|-----12---------------|---------------------0|
|12--------------------|-12-------------------|-12-------------------|-----------------0-2--|
|----------------------|----------------------|----------------------|----------------------|
|----------------------|----------------------|----------------------|----------------------|

  G
  Maybe    I   could      use      you.         To     re-assure     myself
|-3--------------------|----------------------|----------------------|----------------------|
|-3--------------------|----------------------|-3--------------------|----------------------|
|-0--------------------|----------------------|-0--------------------|----------------------|
|-0--------------------|----------------------|-2--------------------|----------------------|
|-2--------------------|----------------------|-3--------------------|----------------------|
|-3--------------------|----------------------|----------------------|----------------------|

  G                                             Am7      Cadd9/B       Cadd9    D5
  I    wouldn't wish     this indecision.       On       any      -   body      else.
|-3--------------------|----------------------|----------------------|----------------------|
|-3--------------------|----------------------|----3--------3--------|----3--------3--------|
|-0--------------------|----------------------|-------0--------0-----|-------0--------2-----|
|-0--------------------|----------------------|----------------------|----------0-----------|
|-2--------------------|----------------------|-0--------2-----------|-3--------------------|
|-3--------------------|----------------------|----------------------|----------------------|

  G
  Drink    enough   of   anything.        To    make    myself    look new again.
|-3--------------------|----------------------|----------------------|----------------------|
|-3--------------------|----------------------|-3--------------------|-3--------------------|
|-0--------------------|----------------------|-0--------------------|-2--------2--4--2--0--|
|-0--------------------|----------------------|-2--------------------|-0--------------------|
|-2--------------------|----------------------|-3--------------------|----------------------|
|-3--------------------|----------------------|----------------------|----------------------|

  G                                             Am7      Cadd9/B       Cadd9    D5
  And    when   the     sin   smiles.           How     could   it     be       wrong?
|-3--------------------|----------------------|----------------------|----------------------|
|-3--------------------|----------------------|----3--------3--------|----3--------3--------|
|-0--------------------|----------------------|-------0--------0-----|-------0--------2-----|
|-0--------------------|----------------------|----------------------|----------0-----------|
|-2--------------------|----------------------|-0--------2-----------|-3--------------------|
|-3--------------------|----------------------|----------------------|----------------------|

 VERSE 3:
  Cadd9                            D            Cadd9                            D
(w/ Rhy. Fig. 1  2 times)
   The  last  horizons    I   can see        Are now resolved to memories
|---------0------------|-0--------------------|---------0------------|----------------------|
|-3-----------3--------|-----3-----------3----|-3--------------3-----|-----------------3----|
|-0---------------0----|-----------0--2-----0-|-0--------------------|-0---------0--2-----0-|
|-2--------------------|----------------------|-2--------------------|----------------------|
|-3--------------------|----------------------|-3--------------------|----------------------|
|----------------------|----------------------|----------------------|----------------------|
| Rhy. Fig. 1                                                              (end Rhy. Fig. 1)
|----------------------|----------------------|----------------------|----------------------|
|-3--------------------|----------------------|-3--------------------|----------------------|
|-0--------------------|-----------------2----|-0--------------------|-----------------2----|
|-2--------------------|-----------0--2-------|-2--------------------|-----------0--2-------|
|-3--------------------|----------------------|-3--------------------|----------------------|
|----------------------|----------------------|----------------------|----------------------|

  Cadd9                            D            Cadd9                            D
  I    never   though I'd  still    be   here   today.
|---------0------------|-0--------------------|---------0------------|-0--------------------|
|-3-----------3--------|-----3-----------3----|-3-----------3--------|-----3-----------3----|
|-0---------------0----|-----------0--2-----0-|-0---------------0----|-----------0--2-----0-|
|-2--------------------|----------------------|-2--------------------|----------------------|
|-3--------------------|----------------------|-3--------------------|----------------------|
|----------------------|----------------------|----------------------|----------------------|

  G                      D/F#                   Em7                    D
  Drink   enough   of   anything           To   make this myself look   new   again
|-7---------7------7---|-5---------5----------|--3---------3---------|----------------------|
|-8-------------8------|-7------------7-------|--3------------3------|-3----3--3------------|
|-5--------------------|-7----7----------7----|--4------4--------4---|-2-----------2--0-----|
|----------------------|----------------------|----------------------|-0--------------------|
|----------------------|----------------------|----------------------|----------------------|
|----------------------|----------------------|----------------------|----------------------|
|
|-3--------------------|----------------------|-0--------------------|----------------------|
|-3--------------------|-----------------3----|-3--------------------|----------------------|
|-0--------------------|-----------------2----|-0--------------------|----------------------|
|-2--------------------|-----------------0----|-2--------------------|----------------------|
|-2--------------------|----------------------|-2--------------------|----------------------|
|-3--------------------|-----------------2----|-0--------------------|----------------------|

  Cadd9                            D            Cadd9                            D
  Drunk, drunk, drunk    in  the gardens and the graves.
|---------0------------|-0--------------------|---------0------------|-0--------------------|
|-3-----------3--------|-----3-----------3----|-3-----------3--------|-----3-----------3----|
|-0---------------0----|-----------0--2-----0-|-0---------------0----|-----------0--2-----0-|
|-2--------------------|----------------------|-2--------------------|----------------------|
|-3--------------------|----------------------|-3--------------------|----------------------|
|----------------------|----------------------|----------------------|----------------------|
|
|----------------------|----------------------|----------------------|----------------------|
|-3--------------------|----------------------|-3--------------------|----------------------|
|-0--------------------|-----------------2----|-0--------------------|-----------------2----|
|-2--------------------|-----------0--2-------|-2--------------------|-----------0--2-------|
|-3--------------------|----------------------|-3--------------------|----------------------|
|----------------------|----------------------|----------------------|----------------------|

|----------------------|----------------------|----------------------|----------------------|
|17---17---15----------|----15--15---15--15---|13---13---12----------|---12--12---12--12----|
|----------------------|----------------------|----------------------|----------------------|
|----------------------|----------------------|----------------------|----------------------|
|----------------------|----------------------|----------------------|----------------------|
|----------------------|----------------------|----------------------|----------------------|
|

|--5----5----3----------|----------------------|-5----5----3----------|----------------------|
|--3----3----3----------|----------------------|-3----3----3----------|----------------------|
|--0----0----0----------|----------------------|-0----0----0----------|----------------------|
|-----------------------|----------------------|----------------------|----------------------|
|-----------------------|----------------------|----------------------|----------------------|
|-----------------------|----------------------|----------------------|----------------------|

  G
|----------------------|----------------------|----------------------|----------------------|
|10---10---12----------|----------12-12--12---|10---10---------------|----------------------|
|----------------------|----------------------|----------12---12-----|12---12----12-12-12---|
|----------------------|----------------------|----------------------|----------------------|
|----------------------|----------------------|----------------------|----------------------|
|----------------------|----------------------|----------------------|----------------------|
|
|-5----5----3----------|----------------------|-5----5----3----------|----------------------|
|-3----3----3----------|----------------------|-3----3----3----------|----------------------|
|-0----0----0----------|----------------------|-0----0----0----------|----------------------|
|----------------------|----------------------|----------------------|----------------------|
|----------------------|----------------------|----------------------|----------------------|
|----------------------|----------------------|----------------------|----------------------|

|----------------------|----------------------|----------------------|----------------------|
|17---17---15----------|----15--15---15--15---|13---13---12----------|---12--12---12--12----|
|----------------------|----------------------|----------------------|----------------------|
|----------------------|----------------------|----------------------|----------------------|
|----------------------|----------------------|----------------------|----------------------|
|----------------------|----------------------|----------------------|----------------------|
|

|-5----5----3----------|----------------------|-5----5----3----------|----------------------|
|-3----3----3----------|----------------------|-3----3----3----------|----------------------|
|-0----0----0----------|----------------------|-0----0----0----------|----------------------|
|----------------------|----------------------|----------------------|----------------------|
|----------------------|----------------------|----------------------|----------------------|
|----------------------|----------------------|----------------------|----------------------|

  G                                            
|----------------------|----------------------|----------------------|----------------------|
|10---10---12----------|----------12-12--12---|10---10---10---12-----|12-------------------|
|----------------------|----------------------|---------------12-----|-----12--------12-----|
|----------------------|----------------------|---------------12-----|----------12----------|
|----------------------|----------------------|----------------------|----------------------|
|----------------------|----------------------|----------------------|----------------------|
|
|-5----5----3----------|----------------------|-5----5----3----------|----------------------|
|-3----3----3----------|----------------------|-3----3----3----------|----------------------|
|-0----0----0----------|----------------------|-0----0----0----------|----------------------|
|----------------------|----------------------|----------------------|----------------------|
|----------------------|----------------------|----------------------|----------------------|
|----------------------|----------------------|----------------------|----------------------|

            
            
Suggest correction
Creating personal tab
Creating personal tab
You can edit any tab online and save it as your Personal.

You can edit, replace or remove any tab part or add personal notes – all changes will be seen only by you.

Personal tabs can be accessed anytime from any device, even offline.
Learn more »
Give kudos to tab author, rate the tab!
1 2 3 4 5
comments
print report bad tab
guest
You may want to rate the tab now too:
select rating
Wanna post a correction for this tab? Suggest correction