Oops, an error
Loading. Please wait.

Amor Mio solo tab

18,599 views 60 this week
3 commentsread comments
1 2 3 4 5
x 8
add to favorites
×
Save as Personal and add changes to this tab that will be seen only by you. Learn more ›
×
You can save this tab as Personal to edit and correct it or add notes. All changes will be seen only by you. Learn more »
launch autoscroll
font size
0
reset
how to read this tab
guitar tuner
edit
Autoscroll
slow
fast
+/-
esc
set tempo
stop
E||--------------|---------------------------------------------------||
B||--------------|---------------------------------------------------||
G||-----0--------|--0--0---------------------------------------------||
D||--------------|--------4---4--4--2---2--2------0--2--4h5p0h4------||
A||--2-----------|-----------------------------2---------------------||
E||--------------|---------------------------------------------------||


------------------------------------------------||---------------|-----------------||
------------------------------------------------||---------------|-----------------||
------------------------------------------------||---------------|-----------------||
--4--4--2---2--2--0---0--0---------0--2---0-----||--2--4--5------|--0--2--4--------||
-----------------------------2--3------------3--||-----------3---|-----------2-----||
------------------------------------------------||---------------|-----------------||

            
            
Suggest correction
Creating personal tab
Creating personal tab
You can edit any tab online and save it as your Personal.

You can edit, replace or remove any tab part or add personal notes – all changes will be seen only by you.

Personal tabs can be accessed anytime from any device, even offline.
Learn more »
comments
print report bad tab
3 comments total.
+1 reply
CherryTerry 29 Mar 27, 2013 01:29 PM

It's a very poor tab I'm afraid.

0 reply
zix hawkins 10 Apr 02, 2013 06:02 AM

I like it <3 Good

0 reply
progahmed 10 Feb 12, 2015 07:22 AM

soo pooor tab

guest
Wanna post a correction for this tab? Suggest correction