Oops, an error
Loading. Please wait.

Mustve Run All Day bass

2,689 views 6 this week
1 commentread comment
1 2 3 4 5
2 more votes to show rating
add to favorites
×
Save as Personal and add changes to this tab that will be seen only by you. Learn more ›
×
You can save this tab as Personal to edit and correct it or add notes. All changes will be seen only by you. Learn more »
launch autoscroll
font size
0
reset
guitar tuner
edit
Autoscroll
slow
fast
+/-
esc
set tempo
stop
Glassjaw
Must’ve Run All Day
Drop D Tuning

This is probably the trickiest song I’ve ever tabbed so thanks for checking it out.  
suggestions, and constructive criticism are always welcome.  Thanks and enjoy! :)

\ - Slide down

Intro – 0:09 – (x1)
G|--------------------|
D|--3--5--5--7--------|
A|--3-----5--7—7\-----|
D|--3-----5--7-----0--|

Part A – 0:19 – (x2)
G|-------------------------------------------------|
D|--3--5--7-------------3--------5--------7----5---|
A|--3--5--7--575--30----3--530---5-5-5-7--7--7-----|
D|--3--5--7----------0--3------0-5--------7--------|

Part B – 0:53 – (x1)
G|------------5----2------------------------------------|
D|--------------5----2-3--------------------------------|
A|--------00-------------320-----55770000000007777777---|
D|--33-55--------------------0-5------------------------|

Part C – 1:11 – (Play first part x3 and then x1 for second part)
G|------------------------------------------|
D|------------------------------------------|
A|--3----33----33----30---0-0----0-0----0---|
D|----04----04----04----03----03-----03-----|

(For clarity’s sake, the last notes are on the 12th fret)
G|-------------------------------------------------|
D|-------------------------------------------------|
A|--3----33----33----3-00000000-1212121212121212---|
D|----04----04----04-------------------------------|


Part A – 1:45 – (x2)

Part B – 2:21 – (x1)

Part C – 2:38 – (x4)

Part D – 3:12 – (x3)
G|---------------------------------------|
D|-------------------------------035-----|
A|---------------------------------------|
D|--3---77---0577---5---7---0577---------|

Part D Variation – 3:37 – (x1)
G|--------------------------|--------12-------12-------12-------14--|
D|--------------------------|--11-12----11-12----11-12----11-12-----|
A|--------------------------|---------------------------------------|
D|--3---77---0577---5---7---|---------------------------------------|

Part C – 3:46 – (x4)

Part E – 4:20 – (x3)
G|-----------------------------------------|
D|----10-----7-----10-----7--------12------|
A|--8----0-8---0-8----0-8---0-8-10----10---|
D|-----------------------------------------|

Part E Variation – 4:32 – (x1)
G|----------------------------|
D|----------------------------|
A|----------------------------|
D|--57-77-77-57-77-77-57-77---|

Part E – 4:37 – (x3)

Part E Variation – 4:49 – (x1)

            
            
Suggest correction
Creating personal tab
Creating personal tab
You can edit any tab online and save it as your Personal.

You can edit, replace or remove any tab part or add personal notes – all changes will be seen only by you.

Personal tabs can be accessed anytime from any device, even offline.
Learn more »
Give kudos to tab author, rate the tab!
1 2 3 4 5
comments
print report bad tab
1 comment total.
0 reply
IsThisAllADream 52 Jun 22, 2011 06:51 PM

perfect! having trouble with the chorus though.

guest
You may want to rate the tab now too:
select rating
Wanna post a correction for this tab? Suggest correction