Oops, an error
Loading. Please wait.

Mary In The Morning bass

19 views 1 this week
no commentswrite comment
1 2 3 4 5
3 more votes to show rating
add to favorites
×
Save as Personal and add changes to this tab that will be seen only by you. Learn more ›
×
You can save this tab as Personal to edit and correct it or add notes. All changes will be seen only by you. Learn more »
launch autoscroll
font size
0
reset
guitar tuner
edit
Autoscroll
slow
fast
+/-
esc
set tempo
stop
Author
Difficulty
Tabbed by: 6METAL6BASSIST6
E-mail: petergriffinav@gmail.com

Tuning: EADG

G|----------------------------------------------------------------|
D|--------------------------------6-----------6---6-------8-------| x2
A|6-----------6---6-----------------------------------------------|
E|----------------------------------------------------------------|

0:08

G|----------------------------------------------------------------|
D|--------------------------------6-----------6---6---------------|
A|6-----------6---6-----------------------------------------------|
E|----------------------------------------------------------------|

G|----------------------------------------------------------------|
D|--------------------------------8-----------8-------------------|
A|6-----------6---6-------------------------------10----------10--|
E|----------------------------------------------------------------|

G|----------------------------------------------------------------|
D|10----------10--10------8-------6-----------6---6-------5-------|
A|----------------------------------------------------------------|
E|----------------------------------------------------------------|

G|----------------------------------------------------------------|
D|3-----------3-----------3---------------------------------------|
A|----------------3---------------1-----------1---3-------5-------|
E|----------------------------------------------------------------|

0:23

G|----------------------------------------------------------------|
D|--------------------------------6-----------6---6---------------|
A|6-----------6---6-----------------------------------------------|
E|----------------------------------------------------------------|

G|----------------------------------------------------------------|
D|--------------------------------8-----------8-------------------|
A|6-----------6---6-------------------------------10----------10--|
E|----------------------------------------------------------------|

G|----------------------------------------------------------------|
D|10----------10--10------8-------6-----------6---6-------5-------|
A|----------------------------------------------------------------|
E|----------------------------------------------------------------|

G|----------------------------------------------------------------|
D|3-----------3-----------3---------------------------------------|
A|----------------3---------------1-----------1---1---------------|
E|----------------------------------------------------------------|

G|--------------------------------|
D|--------------------------------|
A|1-----------1---3-------5-------|
E|--------------------------------|

G|----------------------------------------------------------------|
D|----------------------------------------------------------------|
A|6-----------6---6---------------6-----------6---6-------5-------|
E|----------------------------------------------------------------|

0:43

G|----------------------------------------------------------------|
D|----------------------------------------------------------------| x2
A|3-----------3---3---------------3-----------3---3---------------|
E|----------------------------------------------------------------|

G|----------------------------------------------------------------|
D|----------------------------------------------------------------|
A|1-----------1---1---------------1-----------1---1---------------|
E|----------------------------------------------------------------|

G|----------------------------------------------------------------|
D|----------------------------------------------------------------|
A|3-----------3---3---------------3-----------3---3---------------|
E|----------------------------------------------------------------|

0:58

G|----------------------------------------------------------------|
D|6-----------6---6---------------6-----------6---6---------------|
A|----------------------------------------------------------------|
E|----------------------------------------------------------------|

G|----------------------------------------------------------------|
D|3-----------3---3---------------3-----------3---3---------------|
A|--------------------------------------------------------3-------|
E|----------------------------------------------------------------|

G|----------------------------------------------------------------|
D|----------------------------------------------------------------|
A|1-----------1---1---------------1-----------1---3-------5-------|
E|----------------------------------------------------------------|

1:09

G|----------------------------------------------------------------|
D|--------------------------------6-----------6---6---------------|
A|6-----------6---6-----------------------------------------------|
E|----------------------------------------------------------------|

G|----------------------------------------------------------------|
D|--------------------------------8-----------8-------------------|
A|6-----------6---6-------------------------------10----------10--|
E|----------------------------------------------------------------|

G|----------------------------------------------------------------|
D|10----------10--10------8-------6-----------6---6-------5-------|
A|----------------------------------------------------------------|
E|----------------------------------------------------------------|

G|----------------------------------------------------------------|
D|3-----------3-----------3---------------------------------------|
A|----------------3---------------1-----------1---3-------5-------|
E|----------------------------------------------------------------|

1:24

G|----------------------------------------------------------------|
D|--------------------------------6-----------6---6---------------|
A|6-----------6---6-----------------------------------------------|
E|----------------------------------------------------------------|

G|----------------------------------------------------------------|
D|--------------------------------8-----------8-------------------|
A|6-----------6---6-------------------------------10----------10--|
E|----------------------------------------------------------------|

G|----------------------------------------------------------------|
D|10----------10--10------8-------6-----------6---6-------5-------|
A|----------------------------------------------------------------|
E|----------------------------------------------------------------|

G|----------------------------------------------------------------|
D|3-----------3-----------3---------------------------------------|
A|----------------3---------------1-----------1---1---------------|
E|----------------------------------------------------------------|

G|--------------------------------|
D|--------------------------------|
A|1-----------1---3-------5-------|
E|--------------------------------|

G|----------------------------------------------------------------|
D|----------------------------------------------------------------|
A|6-----------6---6---------------6-----------6---6-------5-------|
E|----------------------------------------------------------------|

1:44

G|----------------------------------------------------------------|
D|----------------------------------------------------------------| x2
A|3-----------3---3---------------3-----------3---3---------------|
E|----------------------------------------------------------------|

G|----------------------------------------------------------------|
D|----------------------------------------------------------------|
A|1-----------1---1---------------1-----------1---1---------------|
E|----------------------------------------------------------------|

G|----------------------------------------------------------------|
D|----------------------------------------------------------------|
A|3-----------3---3---------------3-----------3---3---------------|
E|----------------------------------------------------------------|

1:59

G|----------------------------------------------------------------|
D|6-----------6---6---------------6-----------6---6---------------|
A|----------------------------------------------------------------|
E|----------------------------------------------------------------|

G|----------------------------------------------------------------|
D|3-----------3---3---------------3-----------3---3---------------|
A|--------------------------------------------------------3-------|
E|----------------------------------------------------------------|

G|----------------------------------------------------------------|
D|----------------------------------------------------------------|
A|1-----------1---1---------------1-----------1---3-------5-------|
E|----------------------------------------------------------------|

2:10

G|----------------------------------------------------------------|
D|--------------------------------6-----------6---6---------------|
A|6-----------6---6-----------------------------------------------|
E|----------------------------------------------------------------|

G|----------------------------------------------------------------|
D|--------------------------------8-----------8-------------------|
A|6-----------6---6-------------------------------10----------10--|
E|----------------------------------------------------------------|

G|----------------------------------------------------------------|
D|10----------10--10------8-------6-----------6---6-------5-------|
A|----------------------------------------------------------------|
E|----------------------------------------------------------------|

G|----------------------------------------------------------------|
D|3-----------3-----------3---------------------------------------|
A|----------------3---------------1-----------1---3-------5-------|
E|----------------------------------------------------------------|

2:25

G|----------------------------------------------------------------|
D|--------------------------------6-----------6---6---------------|
A|6-----------6---6-----------------------------------------------|
E|----------------------------------------------------------------|

G|----------------------------------------------------------------|
D|--------------------------------8-----------8-------------------|
A|6-----------6---6-------------------------------10----------10--|
E|----------------------------------------------------------------|

G|----------------------------------------------------------------|
D|10----------10--10------8-------6-----------6---6-------5-------|
A|----------------------------------------------------------------|
E|----------------------------------------------------------------|

G|----------------------------------------------------------------|
D|3-----------3-----------3---------------------------------------|
A|----------------3---------------1-----------1---1---------------|
E|----------------------------------------------------------------|

G|--------------------------------|
D|--------------------------------|
A|1-----------1---3-------5-------|
E|--------------------------------|

G|----------------------------------------------------------------|
D|--------------------------------6-----------6---6---------------|
A|6-----------6---6-----------------------------------------------|
E|----------------------------------------------------------------|

2:46

G|----------------------------------------------------------------|
D|--------------------------------6-----------6---6---------------| x3
A|6-----------6---6-----------------------------------------------|
E|----------------------------------------------------------------|

G|----------------------------------------------------|
D|--------3---5-------6---8-------6-------5-------3---| fades out here.
A|6---------------------------------------------------|
E|----------------------------------------------------|

            
            
Suggest correction
Creating personal tab
Creating personal tab
You can edit any tab online and save it as your Personal.

You can edit, replace or remove any tab part or add personal notes – all changes will be seen only by you.

Personal tabs can be accessed anytime from any device, even offline.
Learn more »
Give kudos to tab author, rate the tab!
1 2 3 4 5
comments
print report bad tab
guest
You may want to rate the tab now too:
select rating
Wanna post a correction for this tab? Suggest correction