Oops, an error
Loading. Please wait.
We have Chord Pro version of Falling Slowly.
It's the closest thing you can get to the original song and it has interactive parts. Check out the tab »
×

Falling Slowly chords

version 4
version 4

Whole song

Interactive

5,201 views 90 this week
1 commentread comment
1 2 3 4 5
x 5
add to favorites
×
Save as Personal and add changes to this tab that will be seen only by you. Learn more ›
×
You can save this tab as Personal to edit and correct it or add notes. All changes will be seen only by you. Learn more »
launch autoscroll
font size
0
reset
transpose
0
reset
display chords
guitar tuner
edit
Autoscroll
slow
fast
+/-
esc
set tempo
stop
Author
Difficulty
intermediate
Strumming
There is no strumming pattern for this song yet. and get +5 IQ
[Intro]
  C                F                C                F
e|--------0---------------1---0-----------0-----------------------|
B|----3-------3---1---3-----------1---3-------3---1---1---1---1---|
G|--0---0---0---0---0---0---0---0---0---0---0---0---0---0---0---0-|
D|----------------------------------------------------------------|
A|3-------------------------------3-------------------------------|
E|----------------0-------------------------------0---------------|

[Verse 1] (play 2x)
  C                F                C                F
e|--------0---------------1---0-----------0-----------------------|
B|1---3-------3---1---3-----------1---3-------3---1---1---1---1---|
G|--0---0---0---0---0---0---0---0---0---0---0---0---0---0---0---0-|
D|----------------------------------------------------------------|
A|3-------------------------------3-------------------------------|
E|----------------0-------------------------------0---------------|


I dont know you but I want you, all the more for that.

Words fall through me and always fool me and I can't react

[Bridge 1]
  Am    G        F     G        Am    G        F     G
e|----------------------------------------------------------------|
B|----1---0-----0-----1---0-----0-----1---0-----0-----1---0-----0-|
G|2---------0-----2---------0-----2---------0-----2---------0-----|
D|--2---2-----0-----3---3-----0-----2---2-----0-----3---3-----0---|
A|0-------------------------------0-------------------------------|
E|--------2-------0-------2---------------2-------0-------2-------|

Games that never amount to more than they meant will play themselves out

[Chorus]
(strumming)
C                 F                 Am
Take this sinking boat and point it home
                F
We've still got time
C                  F                Am
Raise your hopeful voice you have a choice
               F
You've made it now

[Verse]
C               F 
Falling slowly, eyes that know me
C             F
And I can`t go back
C                  F
Moods that take me and erase me
C            F
And I'm painted black

[Bridge 1]
Am         G        F         G          Am
You have suffered enough and warred with yourself
G                  F
It's time that you won

[Chorus]
(strumming)
C                 F                 Am
Take this sinking boat and point it home
                F
We've still got time
C                  F                Am
Raise your hopeful voice you have a choice
               F
You've made it now
C               F             Am
Falling slowly, sing your melody
                F
I'll sing it loud

            
            
Suggest correction
Creating personal tab
Creating personal tab
You can edit any tab online and save it as your Personal.

You can edit, replace or remove any tab part or add personal notes – all changes will be seen only by you.

Personal tabs can be accessed anytime from any device, even offline.
Learn more »
comments
print report bad tab
1 comment total.
0 reply
parez.filda 20 Jan 28, 2017 03:36 PM

Best tab out there!!!

guest
You may want to rate the tab now too:
select rating
Wanna post a correction for this tab? Suggest correction