Oops, an error
Loading. Please wait.
We have an official Crazy tab made by UG professional guitarists. Check out the tab »
×
43,060 views 99 this week
7 commentsread comments
1 2 3 4 5
x 20
add to favorites
×
Save as Personal and add changes to this tab that will be seen only by you. Learn more ›
×
You can save this tab as Personal to edit and correct it or add notes. All changes will be seen only by you. Learn more »
launch autoscroll
font size
0
reset
guitar tuner
edit
Autoscroll
slow
fast
+/-
esc
set tempo
stop
Author
Difficulty
intermediate
Artist: Gnarls Barkley
Song: Crazy
Standard Tuning

[Intro]
G|-----------|
D|-----------|
A|10-10-10-10|
E|-----------|

[Verse]
G|---------------------------------------------------------------|
D|10-10-10-10-10-10-10-10-10-10-13-13-13-13-13-13-13-13-13-13----|
A|---------------------------------------------------11-11-11-11-|
E|---------------------------------------------------------------|

[Chorus]
G|-------------------------------------------------|        (x3)
D|-------------------------------------------------|
A|-11-11-11-11-11-11-10-10-10-10-10-10-10-10-10-10-|
E|-------------------------------------------------|

[Bridge]
G|-------------------------------------------------------------------|
D|10-10-10-10-10-10-10-10-10-10---------------------------13-13-13-13|
A|--------------------------11-11-11-11-11-11-11-11-11-11------------|
E|-------------------------------------------------------------------|

G|---------------------------|------------------|
D|-13-13-13-13-13-13---------|------------------|
A|--------------10-10-10-10--|10-10-10-10-10-10-|
E|---------------------------|------------------|

[Verse]
G|---------------------------------------------------------------|
D|10-10-10-10-10-10-10-10-10-10-13-13-13-13-13-13-13-13-13-13----|
A|----------------------------------------------------11-11-11-11|
E|---------------------------------------------------------------|

[Chorus]
G|-------------------------------------------------|     (x2)
D|-------------------------------------------------|
A|-11-11-11-11-11-11-10-10-10-10-10-10-10-10-10-10-|
E|-------------------------------------------------|

[Bridge]
G|-----------------------------------------------------------------|
D|10-10-10-10-10-10-10-10-10-10-------------------------13-13-13-13|
A|------------------------11-11-11-11-11-11-11-11-11-11------------|
E|-----------------------------------------------------------------|

G|--------------------------------------------------|
D|-13-13-13-13-13-13--------------------------------|
A|------------------10-10-10-10-10-10-10-10-10-10---|
E|--------------------------------------------------|

[Verse]
G|--------------------------------------------------------------|
D|10-10-10-10-10-10-10-10-10-10-13-13-13-13-13-13-13-13-13-13---|
A|---------------------------------------------------11-11-11-11|
E|--------------------------------------------------------------|

[Chorus]
G|-------------------------------------------------|     (x2)
D|-------------------------------------------------|
A|-11-11-11-11-11-11-10-10-10-10-10-10-10-10-10-10-|
E|-------------------------------------------------|

[Outro]
G|-----------------------------------------------------------------|
D|10-10-110-10-10-10-10-10-10---------------------------13-13-13-13|
A|--------------------------11-11-11-11-11-11-11-11-11-11----------|
E|-----------------------------------------------------------------|

G|-----------------------------------------------|
D|-13-13-13-13-13-13---------------------------10|
A|-----------------10-10-10-10-10-10-10-10-10-10-|
E|-----------------------------------------------|

            
            
Suggest correction
Creating personal tab
Creating personal tab
You can edit any tab online and save it as your Personal.

You can edit, replace or remove any tab part or add personal notes – all changes will be seen only by you.

Personal tabs can be accessed anytime from any device, even offline.
Learn more »
comments
print report bad tab
7 comments total. Showing first comments. show 1 bad comment
+1 reply
firek 70 Aug 19, 2006 03:38 PM

ya uhh, you say everyone says they're 100% right but they're not, that applies to you too buddy. it's close but deffinately not right...

+3 reply
Ibanez3134 10 Sep 13, 2006 02:05 AM

THis isnt intermedite u idiot its piss easy

guest
You may want to rate the tab now too:
select rating
Wanna post a correction for this tab? Suggest correction