Oops, an error
Loading. Please wait.

Made Up Stories bass

version 1
version 1

Whole song

Interactive

3,977 views 1 this week
5 commentsread comments
1 2 3 4 5
x 4
add to favorites
×
Save as Personal and add changes to this tab that will be seen only by you. Learn more ›
×
You can save this tab as Personal to edit and correct it or add notes. All changes will be seen only by you. Learn more »
launch autoscroll
font size
0
reset
guitar tuner
edit
Autoscroll
slow
fast
+/-
esc
set tempo
stop
Author
Difficulty
Verse

G:|-----------------|-----------------|-----------------|-----------------|
D:|-----------------|-----------------|-----------------|-----------------|
A:|-5-5-5-5-5-5-5-5-|-5-5-5-5-5-5-5-5-|-----------------|-----------------|
E:|-----------------|-----------------|-7-7-7-7-7-7-7-7-|-7-7-7-7-7-7-7-7-|

G:|-----------------|-----------------|-----------------|-----------------|
D:|-----------------|-----------------|-----------------|-----------------|
A:|-----------------|-----------------|-5-5-5-5-5-5-5-5-|-----------------|
E:|-3-3-3-3-3-3-3-3-|-3-3-3-3-3-3-3-3-|-----------------|-5-5-5-5-5-5-5-5-|

Chorus

G:|-----------------|-----------------|-----------------|-----------------|
D:|-----------------|-----------------|-----------------|-----------------|
A:|-----------------|-----------------|-----------------|-----------------|
E:|-3-3-------------|-5-5-------------|-7-7-------------|-7-7-------5-----|

G:|-----------------|-----------------|-----------------|-----------------|
D:|-----------------|-----------------|-----------------|-----------------|
A:|-----------------|-----------------|-5-5-5-5-5-5-5-5-|-5-5-5-5-5-5-5-5-|
E:|-3-3-------------|-5-5-------------|-----------------|-----------------|

G:|-----------------|-----------------|-----------------|-----------------|
D:|-----------------|-----------------|-----------------|-----------------|
A:|-----------------|-----------------|-----------------|-----------------|
E:|-3-3-3-3-3-3-3-3-|-5-5-5-5-5-5-5-5-|-7-7-7-7-7-7-7-7-|-7-7-7-7-7-7-7-7-|

G:|-----------------|-----------------|-----------------|-----------------|
D:|-----------------|-----------------|-----------------|-----------------|
A:|-----------------|-----------------|-5-5-5-5-5-5-5-5-|-5-5-5-5-5-5-5-5-|
E:|-3-3-3-3-3-3-3-3-|-5-5-5-5-5-5-5-5-|-----------------|-----------------|

Bridge

G:|-----------------|-----------------|-----------------|-----------------|
D:|-----------------|-----------------|-----------------|-----------------|
A:|-----------------|-----------------|-----------------|-----------------|
E:|-7-7-7-7-7-7-7-7-|-7-7-7-7-7-7-7-7-|-5-5-5-5-5-5-5-5-|-5-5-5-5-5-5-5-5-|

G:|-----------------|-----------------|-----------------|-----------------|
D:|-----------------|-----------------|-----------------|-----------------|
A:|-5-5-5-5-5-5-5-5-|-5-5-5-5-5-5-5-5-|-----------------|-----------------|
E:|-----------------|-----------------|-3-3-3-3-3-3-3-3-|-5-5-5-5-5-5-5-5-|

G:|-----------------|-----------------|-----------------|-----------------|
D:|-----------------|-----------------|-----------------|-----------------|
A:|-----------------|-----------------|-----------------|-----------------|
E:|-7-7-7-7-7-7-7-7-|-7-7-7-7-7-7-7-7-|-5-5-5-5-5-5-5-5-|-5-5-5-5-5-5-5-5-|

G:|-----------------|-----------------|-----------------|-----------------|
D:|-----------------|-----------------|-----------------|-----------------|
A:|-5-5-5-5-5-5-5-5-|-5-5-5-5-5-5-5-5-|-----------------|-----------------|
E:|-----------------|-----------------|-3-3-------------|-5---------------|

Interlude

G:|-----------------|-----------------|-----------------|-----------------|
D:|-----------------|-----------------|-----------------|-----------------|
A:|-5-5-5-5-5-5-5-5-|-5-5-5-5-5-5-5-5-|-----------------|-----------------|
E:|-----------------|-----------------|-3-3-3-3-3-3-3-3-|-3-3-3-3-3-3-3-3-|

G:|-----------------|-----------------|-----------------|-----------------|
D:|-----------------|-----------------|-----------------|-----------------|
A:|-----------------|-----------------|-----------------|-----------------|
E:|-7-7-7-7-7-7-7-7-|-7-7-7-7-7-7-7-7-|-5-5-5-5-5-5-5-5-|-5-5-5-5-5-5-5-5-|

G:|------ 
D:|------
A:|------
E:|-5----   <-- End with this second time around!

Outro

G:|-----------------|-----------------|-----------------|-----------------|
D:|-----------------|-----------------|-----------------|-----------------|
A:|-5-5-5-5-5-5-5-5-|-5-5-5-5-5-5-5-5-|-----------------|-----------------|
E:|-----------------|-----------------|-3-3-3-3-3-3-3-3-|-3-3-3-3-3-3-3-3-|

G:|-----------------|-----------------|-----------------|-----------------|
D:|-----------------|-----------------|-----------------|-----------------|
A:|-----------------|-----------------|-----------------|-----------------|
E:|-7-7-7-7-7-7-7-7-|-7-7-7-7-7-7-7-7-|-5-5-5-5-5-5-5-5-|-5-5-5-5-5-5-5-5-|

G:|------
D:|------
A:|-5~~--
E:|------  <-- End with this third time around. Easy!


Structure:

Verse x2
Chorus
Verse x2
Chorus
Bridge
Interlude x2
Outro x3



            
            
Suggest correction
Creating personal tab
Creating personal tab
You can edit any tab online and save it as your Personal.

You can edit, replace or remove any tab part or add personal notes – all changes will be seen only by you.

Personal tabs can be accessed anytime from any device, even offline.
Learn more »
comments
print report bad tab
5 comments total. Showing first comments.
0 reply
almightysimmo 10 Jun 25, 2008 01:34 AM

This is obviously wrong as Go:Audio dont even have a bassist :)

x

+1 reply
Benjy UK 52 Jun 29, 2008 06:28 AM

But they have a bass line to the song! So it's still playable on bass ;)

+1 reply
lorrythebassguy 140 Jun 29, 2008 12:04 PM

Yeah almightysimmo is right, they dont have a bassist, but i think that sounds good when played to the song cos it fits with the keyboard chords!
ill give you 3 stars for trying though!
:)

guest
You may want to rate the tab now too:
select rating
Wanna post a correction for this tab? Suggest correction