Oops, an error
Loading. Please wait.

About My Summer chords

by Gob
78 views 1 this week
no commentswrite comment
1 2 3 4 5
2 more votes to show rating
add to favorites
×
Save as Personal and add changes to this tab that will be seen only by you. Learn more ›
×
You can save this tab as Personal to edit and correct it or add notes. All changes will be seen only by you. Learn more »
launch autoscroll
font size
0
reset
transpose
0
reset
display chords
guitar tuner
edit
Autoscroll
slow
fast
+/-
esc
set tempo
stop
Strumming
There is no strumming pattern for this song yet. and get +5 IQ
Gob
About My Summer
Muertos Vivos
2007
Submitted by: paramore_fans@yahoo.com

Key: C#

Tuning: Standard EADGBe

Chords used:
Bbm - x13321
B -   x24442
G -   320033
G# -  466544
F# -  244322
A -   x02220
Fm -  133311
Ebm - x68876


Intro:

Guitar 2:
e|-----6-------6---|
B|-6-7---7-6-7---7-|
G|-----------------|
D|-----------------| x4
A|-----------------|
E|-----------------|


Then Bbm--B-F#-G#--G#--A-Ebm-F#-


Verse 1:
  Bbm
I took a walk in the park
           B       F#   G#
the bluest blue in the sky
Until my legs gave out I
         A      Ebm F#
sat on a bridge and died
         Bbm
And when they covered my eyes
               B    F# G#
there wasn't a soul to save
And then they started to laugh
             A    Ebm F#
it had to be done a---gain

Guitar 2: in "again", tr means tremolo effects
e|-4-tr--|
B|-------|
G|-------|
D|-------|
A|-------|
E|-------|


Chorus 1:
  Bbm           B     F# G#
I know it's the price I  pay
You can't feel a heat
           A     Ebm F#
that's 200 miles a---way
     Bbm
I'm alone it was my
B      F#  G#
choice to stay
And stare in an empty
          A  Ebm Fm F#
mirror at yester-day


Interlude: F#--

Guitar 2:
e|----------6-|
B|-9--7--6----|
G|------------|
D|------------|
A|------------|
E|------------|


Verse 2:
       Bbm
I went into a void you
         B    F# G#
were the void a  maze
If I could keep to myself
         A   Ebm    F#
it keeps me alive untouched
         Bbm
I wear a permanent frown
         B    F#  G#
nervous about my  fate
If it's a million to one
                 A    Ebm  F#
I can't hold you down that way

Guitar 2: in "void a maze"
e|-------13----|
B|----14----14-|
G|-13----------|
D|-------------|
A|-------------|
E|-------------|

in i wear a permanent frown"
e|---2-1---2-1--2-1--------------2-1-------------|
B|-----------------------------------------------|
G|-3-----3-----1----1-3-1---1--1-----1-3-1---1---|
D|------------------------4----------------4---4-|
A|-----------------------------------------------|
E|-----------------------------------------------|


Chorus 2:
  Bbm           B     F# G#
I know it's the price I  pay
You can't feel a heat
           A     Ebm F#
that's 200 miles a---way
     Bbm
I'm alone it was my
B      F#  G#
choice to stay
Here an abandoned
          A    Ebm Fm  F#
minefield that you made


Interlude: Bbm---- x4
F#-Fm-Ebm-F#-Fm-

Tom:
               Bbm
e|---------------------------------|
B|---------------------------------|
G|---------------------------------|
D|-------------------------4---4---| x8
A|---1---1---1---1---1---1---1---1-|
E|-4---4---4---4---4---4-----------|


Theo: Bbm x2
e|---------------------------------------------------------------------------|
B|-6-7-6-7-6-7-6-7-6-7-6-7-6-7-6-7-4-6-4-6-4-6-4-6-4-6-4-6-4-6-4-6-----------|
G|---------------------------------------------------------------------------|
D|---------------------------------------------------------------------------|
A|---------------------------------------------------------------------------|
E|---------------------------------------------------------------------------|

e|-8---8---8---8---8---8---8---8---9---9---9---9---9---9---9---9---|
B|-----------------------------------------------------------------|
G|---8---8---8---8---8---8---8---8---------------------------------|
D|-----------------------------------8---8---8---8---8---8---8---8-|
A|-----------------------------------------------------------------|
E|-----------------------------------------------------------------|


(Repeat Chorus 1)
(Repeat Chorus 2)


Outro: Bbm---- x16

Tom:
               Bbm
e|---------------------------------|
B|---------------------------------|
G|---------------------------------|
D|-------------------------4---4---| x12
A|---1---1---1---1---1---1---1---1-|
E|-4---4---4---4---4---4-----------|


Theo: Bbm x2
e|---------------------------------------------------------------------------|
B|-6-7-6-7-6-7-6-7-6-7-6-7-6-7-6-7-4-6-4-6-4-6-4-6-4-6-4-6-4-6-4-6-----------|
G|---------------------------------------------------------------------------|
D|---------------------------------------------------------------------------|
A|---------------------------------------------------------------------------|
E|---------------------------------------------------------------------------|

e|-8---8---8---8---8---8---8---8---9---9---9---9---9---9---9---9---|
B|-----------------------------------------------------------------|
G|---8---8---8---8---8---8---8---8---------------------------------|
D|-----------------------------------8---8---8---8---8---8---8---8-|
A|-----------------------------------------------------------------|
E|-----------------------------------------------------------------|

e|---------------------------------------------------------------------------|
B|-6-7-6-7-6-7-6-7-6-7-6-7-6-7-6-7-4-6-4-6-4-6-4-6-4-6-4-6-4-6-4-6-----------|
G|---------------------------------------------------------------------------|
D|---------------------------------------------------------------------------|
A|---------------------------------------------------------------------------|
E|---------------------------------------------------------------------------|

e|-8---8---8---8---8---8---8---8---9---9---9---9---9---9---9---9---|
B|-----------------------------------------------------------------|
G|---8---8---8---8---8---8---8---8---------------------------------|
D|-----------------------------------8---8---8---8---8---8---8---8-|
A|-----------------------------------------------------------------|
E|-----------------------------------------------------------------|

e|---------------------------------------------------------------------------|
B|-6-7-6-7-6-7-6-7-6-7-6-7-6-7-6-7-4-6-4-6-4-6-4-6-4-6-4-6-4-6-4-6-----------|
G|---------------------------------------------------------------------------|
D|---------------------------------------------------------------------------|
A|---------------------------------------------------------------------------|
E|---------------------------------------------------------------------------|

e|-----------------------------------------------------------------|
B|-2-4-2-4-2-4-2-4-2-4-2-4-2-4-2-4---------------------------------|
G|---------------------------------3-5-3-5-3-5-3-5-3-5-3-5-3-5-3-5-|
D|-----------------------------------------------------------------|
A|-----------------------------------------------------------------|
E|-----------------------------------------------------------------|

e|---------------------------------------------------------------------------|
B|-6-7-6-7-6-7-6-7-6-7-6-7-6-7-6-7-4-6-4-6-4-6-4-6-4-6-4-6-4-6-4-6-----------|
G|---------------------------------------------------------------------------|
D|---------------------------------------------------------------------------|
A|---------------------------------------------------------------------------|
E|---------------------------------------------------------------------------|

e|-----------------------------------------------------------------|
B|-2-4-2-4-2-4-2-4-2-4-2-4-2-4-2-4---------------------------------|
G|---------------------------------3-5-3-5-3-5-3-5-3-5-3-5-3-5-3-5-|
D|-----------------------------------------------------------------|
A|-----------------------------------------------------------------|
E|-----------------------------------------------------------------|

            
            
Suggest correction
Creating personal tab
Creating personal tab
You can edit any tab online and save it as your Personal.

You can edit, replace or remove any tab part or add personal notes – all changes will be seen only by you.

Personal tabs can be accessed anytime from any device, even offline.
Learn more »
Give kudos to tab author, rate the tab!
1 2 3 4 5
comments
print report bad tab
guest
You may want to rate the tab now too:
select rating
Wanna post a correction for this tab? Suggest correction