Oops, an error
Loading. Please wait.

Been So Long chords

by Gob
578 views 1 this week
no commentswrite comment
1 2 3 4 5
x 3
add to favorites
×
Save as Personal and add changes to this tab that will be seen only by you. Learn more ›
×
You can save this tab as Personal to edit and correct it or add notes. All changes will be seen only by you. Learn more »
launch autoscroll
font size
0
reset
transpose
0
reset
display chords
guitar tuner
edit
Autoscroll
slow
fast
+/-
esc
set tempo
stop
Strumming
There is no strumming pattern for this song yet. and get +5 IQ
Gob
Been So Long
World According To Gob
2000
Submitted by: paramore_fans@yahoo.com

Key: G#

Tuning: Standard EADGBe

Chords used:
G# -  466544
Bbm - x13321
Fm -  133311
C# -  x46664
F# -  244322


Intro: G#-Bbm- x4

Guitar 2:
         G#                       Bbm
e|-8-8-8-8-9-9-9-9-|-8-8-8-8-9-9-9-9-8-8-8-8-6-6-6-6-|
B|-9-9-9-9-9-9-9-9-|-9-9-9-9-9-9-9-9-9-9-9-9-9-9-9-9-|
G|-8-8-8-8-8-8-8-8-|-8-8-8-8-8-8-8-8-8-8-8-8-8-8-8-8-|
D|-----------------|---------------------------------| x2
A|-----------------|---------------------------------|
E|-----------------|---------------------------------|
         x2

Guitar 3:
             G#                        Bbm
e|-------------------------|-------------8------8-----|
B|-9-----9-----11-9-8-9----|-9-----9-------11-9----11-|
G|----8-----8------------8-|----8-----8---------------|
D|-------------------------|--------------------------|
A|-------------------------|--------------------------|
E|-------------------------|--------------------------|


Verse 1:
G#            Bbm
How I long to see your eyes
          G#
Your eyes fill me up
  Bbm
I breathe them inside
G#
  I have your image
       Bbm
deep inside of me
G#
  I hold your picture
F#     Bbm
It's a part of me


Guitar 2: at "i breathe them inside"
e|-9---|
B|---9-|
G|-----|
D|-----|
A|-----|
E|-----|


Chorus 1:
       G#      Bbm
It has been so long
       Fm      C#
It has been so long
       G#      Bbm
It has been so long
       Fm      C#
It has been so long


Verse 2:
G#
Without you there
   Bbm
is no sun just sky
G#
I'm a wound that's
Bbm
bone deep bled dry
G#
I have your image
       Bbm
deep inside of me
G#
  I hold your picture
F#     Bbm
It's a part of me


Chorus 2:
       G#      Bbm
It has been so long
       Fm      C#
It has been so long
       G#      Bbm
It has been so long
       Fm      C#
It has been so long
(Repeat)


Guitar Solo: C#--Eb-- x2

Guitar 2: Solo
             C#                    Eb
e|-------------------------|---------------|
B|-------------------------|---------------|
G|-13-13-13-13-13-12-10-12-|-10--8--13--15-|
D|--x--x--x--x--x--x--x--x-|--x--x---x--x--|
A|-11-11-11-11-11-10--8-10-|--8--6--11--13-|
E|-------------------------|---------------|
             x2

                 C#                      Eb !=artificial harmonics
e|-8h9p8-------8h9p8-------8h9p8---|-----11--16!-|
B|-------11-9--------11-9--------9-|-11----------|
G|---------------------------------|-------------|
D|---------------------------------|-------------|
A|---------------------------------|-------------|
E|---------------------------------|-------------|


Interlude: It has
G#-Bbm-Fm-C#- x8


Chorus 3: Bass Solo
       G#      Bbm
It has been so long
       Fm      C#
It has been so long
       G#      Bbm
It has been so long
       Fm      C#
It has been so long
(Repeat)


Bass: Chorus 3
    G#      G#         C#        Bbm         C#
G|------|----13-|----13----13-|----13-|----13----13-|
D|------|-------|-11----11----|-------|-11----11----|
A|-11---|-11----|-------------|-13----|-------------|
E|------|-------|-------------|-------|-------------|

Complex Bass Riff:
G|----13----13-12-10-------------------|
D|----------------------13-11-10-------|
A|-11----11----------11----------13-11-|
E|-------------------------------------|

G|---------------------------|
D|------------------------11-|
A|-11-10-13-11-10-11-11-8----|
E|---------------------------|


(Repeat Intro)
(Repeat Chorus 2 twice)

            
            
Suggest correction
Creating personal tab
Creating personal tab
You can edit any tab online and save it as your Personal.

You can edit, replace or remove any tab part or add personal notes – all changes will be seen only by you.

Personal tabs can be accessed anytime from any device, even offline.
Learn more »
Give kudos to tab author, rate the tab!
1 2 3 4 5
comments
print report bad tab
guest
You may want to rate the tab now too:
select rating
Wanna post a correction for this tab? Suggest correction