Oops, an error
Loading. Please wait.

Bully chords

by Gob
270 views 1 this week
no commentswrite comment
1 2 3 4 5
3 more votes to show rating
add to favorites
×
Save as Personal and add changes to this tab that will be seen only by you. Learn more ›
×
You can save this tab as Personal to edit and correct it or add notes. All changes will be seen only by you. Learn more »
launch autoscroll
font size
0
reset
transpose
0
reset
display chords
guitar tuner
edit
Autoscroll
slow
fast
+/-
esc
set tempo
stop
Strumming
There is no strumming pattern for this song yet. and get +5 IQ
Gob
Bully
Foot In Mouth Disease
2003
Submitted by: paramore_fans@yahoo.com

Key: B

Tuning: Standard EADGBe

Chords used:
G#m - 466444
E -   022100
B -   x24442
F# -  244322
C#m - x46654
D -   xx0232


Verse 1:
G#m
  Find yourself down 
             E B
on your knees again
G#m
   The question is when's 
             E B   F# E G#m
it gonna end?  Whoa    whoa
G#m
   It just seems this 
                 E
will never change
B   G#m
It's   the same shit 
            E B F# E  G#m
as yesterday  whoa  whoa


Interlude: G#m-E-B- x4,


Verse 2:
G#m
   Taking shots all that 
            E    B
you can take And now
G#m
   You hate yourself more 
             E
than you can hate
B F# E  G#m G#m
Whoa  whoa     There's gonna 
               E  B
be an emergency I swear
G#m
   It's at the stage where 
something's gonna 
E     B  F# E  G#m
break Whoa   whoa


Breakdown: C#m-D
e|-------------------------------|
B|-2-2-2-2-2-2-2-2-3-3-3-3-3-3-3-|
G|-------------------------------|
D|-------------------------------|
A|-------------------------------|
E|-------------------------------|


Chorus: Tom Thacker's Screamo singing style here!!!
G#m
Running like a freight train
F#
  You're going insane
E
  It's just another day
B               F#
  For all these bloody veins
G#m
   It's like a whirlwind 
F#
pushing in the deep end
E
  You're screaming to a friend
B           C#m
Get out get out get out!


Interlude: G#m-E-B- x2


Verse 3:
G#m
   Soon the shit's gonna 
           E    B
hit the fan You see
G#m
   It's coming on like 
           E B F# E   G#m
a hurricane  Whoa   whoa
G#m
   Tired of being 
             E B
pushed around  Now
G#m
   Getting close 
you're at the edge
E B F# E   G#(hold)
 (Whoa   whoa)

Tom Screams:
If you're going down
Then everybody's going down


(Repeat Chorus twice)


Guitar Solo: G#m--F#--E--B-F#- x4, G#m(hold)--

Guitar 2: Solo
         G#m                F#                E                 B
e|-4-4-4-4-4-7-4-4-|-4-4-4-4-4-7-4-4-|-4-4-4-4-4-7-4-4-|-4-4-4-6-7-6-4---|
B|-----------------|-----------------|-----------------|---------------7-|
G|-----------------|-----------------|-----------------|-----------------|
D|-----------------|-----------------|-----------------|-----------------|
A|-----------------|-----------------|-----------------|-----------------|
E|-----------------|-----------------|-----------------|-----------------|

         G#m                F#                E                  B
e|-4-4-4-6-7-6-4---|-4-6-7-6-7-6-4---|-4-4-4-4-4-4-4-4-|-7-7-7-9-11-9-11-11-|
B|---------------7-|---------------7-|-----------------|--------------------|
G|-----------------|-----------------|-----------------|--------------------|
D|-----------------|-----------------|-----------------|--------------------|
A|-----------------|-----------------|-----------------|--------------------|
E|-----------------|-----------------|-----------------|--------------------|

          G#m
e|-4---guitar-effects-|
B|--------------------|
G|--------------------|
D|--------------------|
A|--------------------|
E|--------------------|


Bridge: Bass Solo
G#m                            E B
   Tired of being pushed around
G#m                            E B
   Tired of being pushed around
G#m                            E B
   Tired of being pushed around
G#m                             E B
   There's gonna be an emergency
G#m                            E B
   Tired of being pushed around
G#m                             E B
   There's gonna be an emergency
G#m                            E B
   Tired of being pushed around
G#m(hold)
   There's gonna be an emergency, look out!!!


Interlude: G#m-E-B- x8


(Repeat Chorus twice)


Outro:
G#m F# E B            C#m
         Get out, get out, get out!
G#m F# E B            C#m      (hold)
         Get out, get out, get out!

            
            
Suggest correction
Creating personal tab
Creating personal tab
You can edit any tab online and save it as your Personal.

You can edit, replace or remove any tab part or add personal notes – all changes will be seen only by you.

Personal tabs can be accessed anytime from any device, even offline.
Learn more »
Give kudos to tab author, rate the tab!
1 2 3 4 5
comments
print report bad tab
guest
You may want to rate the tab now too:
select rating
Wanna post a correction for this tab? Suggest correction