Oops, an error
Loading. Please wait.

Fed Up ukulele

by Gob
29 views 1 this week
no commentswrite comment
1 2 3 4 5
3 more votes to show rating
add to favorites
×
Save as Personal and add changes to this tab that will be seen only by you. Learn more ›
×
You can save this tab as Personal to edit and correct it or add notes. All changes will be seen only by you. Learn more »
launch autoscroll
font size
0
reset
transpose
0
reset
display chords
guitar tuner
edit
Autoscroll
slow
fast
+/-
esc
set tempo
stop
Strumming
There is no strumming pattern for this song yet. and get +5 IQ
Gob
Fed Up
Foot In Mouth Disease
2003
Submitted by: paramore_fans@yahoo.com

Key: G#

Tuning: Standard EADGBe

Chords used:
Fm - 133111
C# - x46664
Eb - x68886
Cm - x35543
G# - 466544


Intro: Piano
    Cm      C#      Eb     Cm         C#         G#
e|------|--------|------|------|-4--4---4---6-|-8-----|
B|----4-|----6-4-|------|----4-|------4---4---|-------|
G|------|--------|----6-|-5----|--------------|----6--|
D|------|--------|------|------|--------------|-------|
A|-3----|-4------|-6----|-3----|-4------------|-------|
E|------|--------|------|------|--------------|-4-----|

Guitar: Distortion
C#-G#-C#-G#-Fm-Eb-C#-G#
C#-G#-Fm-Eb-C#-G#-

Piano: Distortion:
e|-11--9--8--------|
B|-----------11--9-|
G|-----------------|
D|-----------------| x3
A|-----------------|
E|-----------------|


Verse 1:
Fm                  Eb
  With tunnel vison on
Fm                 Eb
  You are the only one
Fm
  All made up
Eb
  Stare straight up
Fm                     Eb
  Walk straight into a wall


Interlude: Fm--Eb-- x2

Guitar 2: Interlude
        Fm                 Eb
e|---------------|--------------------|
B|---------------|--------------------|
G|-10--13-12--13-|-8--13-12--6h8h8h10-|
D|--x---x--x---x-|-x---x--x-----------| x2
A|--8--11-10--11-|-6--11-10-----------|
E|---------------|--------------------|


Verse 2:
Fm                     Eb
  See this is all your fault
Fm                          Eb
  You take more the you can hold
Fm
  You want this one
Eb
  You won't give up
Fm                          Eb
  You'll suck it through a straw


Chorus:
           C#  G#           C#  G#
til you're full  til you're full
               Fm
It's true that you would be fed 
        Eb                   C#
up with you if you knew what you are 
           C#  G#       C#  G#
til you're full  of yourself
               Fm
It's true that you would be fed up 
     Eb                       C#
with you if you knew what you are


Interlude: Fm--Eb-- x2


Verse 2:
Fm                      Eb
  It's different then before
Fm                    Eb
  You don't listen anymore
Fm                Eb
  You're impatient  you're inflated
Fm                     Eb
  And I know you wont stop


Guitar 2: at "you're impatient"
e|-8h9p8---|
B|-------9-|
G|---------|
D|---------| x3
A|---------|
E|---------|


(Repeat Chorus)


Intelrude: 
Fm-Eb-Fm-Eb-Fm-Eb-Fm-Eb-C#-G#-Fm-Eb
Fm-Eb-C#-G#-Fm-Eb-C#-G#-C#-G#-Fm-Eb
Fm-Eb-C#-G#-Fm-Eb-C#(hold)

Guitar 2:
e|-------------------------------|
B|-1--2-1--1--2-1--4--2--1-----4-|
G|--------------------------1----|
D|-------------------------------| x8
A|-------------------------------|
E|-------------------------------|

Guitar 3:
e|----8-------|-----------8------------------8-------|
B|-------9----|-9-----11-----9-----9-----11-----9----|
G|-8--------8-|----8------------8-----8------------8-|
D|-6----------|--------------------------------------|
A|-8----------|--------------------------------------|
E|------------|--------------------------------------|
                                  x8


Guitar Solo: faster beat
Fm--Eb-- x4

Guitar 2: Solo
         Fm                    Eb
e|-3-3-3-3-1-3-3-3-1-|-4-4-4-3-4-4-3-4-4-6-|
B|-------------------|---------------------|
G|-------------------|---------------------|
D|-------------------|---------------------|
A|-------------------|---------------------|
E|-------------------|---------------------|
         x2

         Fm                     Eb
e|-6-6-6-4-4-3-3-3-4-|---------------6-8-8-8-|
B|-------------------|-4-4-4-4-4-4-4---------|
G|-------------------|-----------------------|
D|-------------------|-----------------------|
A|-------------------|-----------------------|
E|-------------------|-----------------------|
         x2

            Fm                     Eb
e|-8-8-8-8---------------|-8-8-8-8-------------|
B|---------8-8-8-8-9-8-9-|---------8-8-8-9-8-9-|
G|-----------------------|---------------------|
D|-----------------------|---------------------| x2
A|-----------------------|---------------------|
E|-----------------------|---------------------|
           x2


(Repeat chorus twice)

            
            
Suggest correction
Creating personal tab
Creating personal tab
You can edit any tab online and save it as your Personal.

You can edit, replace or remove any tab part or add personal notes – all changes will be seen only by you.

Personal tabs can be accessed anytime from any device, even offline.
Learn more »
Give kudos to tab author, rate the tab!
1 2 3 4 5
comments
print report bad tab
guest
Wanna post a correction for this tab? Suggest correction