Oops, an error
Loading. Please wait.

Give Up The Grudge chords

version 1
version 1

Whole song

Interactive

by Gob
2,248 views 3 this week
no commentswrite comment
1 2 3 4 5
x 3
add to favorites
×
Save as Personal and add changes to this tab that will be seen only by you. Learn more ›
×
You can save this tab as Personal to edit and correct it or add notes. All changes will be seen only by you. Learn more »
launch autoscroll
font size
0
reset
transpose
0
reset
simplify chords
display chords
guitar tuner
edit
Autoscroll
slow
fast
+/-
esc
set tempo
stop
Strumming
There is no strumming pattern for this song yet. and get +5 IQ
Gob
Give Up The Grudge
Foot And Mouth Disease
2003
Submitted by: paramore_fans@yahoo.com

Key: Eb

Tuning: Standard EADGBE

Chords used:
Bb -   x13331
G# -   466544
Gm -   355333
Fm -   133111
Eb -   x68886
Cm -   x35543
B -    x24442
Bb/D - x587xx


Intro:

Distortion: Eb-C#-Cm-Bb-G#-Gm x2

Guitar 2:
  Eb   C#   Cm   Bb   G#   Gm
e|---|----|----|----|----|----|
B|---|----|----|----|----|----|
G|-8-|-10-|-12-|-13-|-12-|-10-|
D|-x-|--x-|--x-|--x-|--x-|--x-|
A|-6-|--8-|-10-|-11-|-10-|--8-|
E|---|----|----|----|----|----|

Silence:
        Eb
e|--------------|
B|--------------|
G|-----8------8-|
D|--------------| x4
A|-6-6---6-6----|
E|--------------|


Verse 1
              Eb
Don't make me listen to the
stupid broken record again
The needle's skipping and
                         Bb  Eb
repeating never reaching the end
You know you're bitching and
complaining like you've got it so tough
We're sick of all your crying
              Bb   Eb
will you ever shut up?


Refrain:
        G#                 Eb
So keep bleeding your fake blood
     G#          Eb
till no one even sees it
   Gm         G#                Eb
If that's the best you can make up
   B                  Bb
at least act like you mean it


Chorus 1:
Eb          G#
Give up the grudge
Eb                G#
Shut your fucking mouth
Eb            G#
why you gotta judge
     Cm           Bb
everybody but yourself
Eb           G#
Take a look around you
      Eb           G#
There ain't nobody home
Eb         G#
I may be a loser
       Cm        Bb   Eb-- x4 Bb-Eb--Bb/D-Eb-
But at least I'm not alone


Verse 2:
Eb
  Your mercedes won't start
Yeah that's a crying shame
I guess 90K a year buys
        Bb     Eb
nothing but complaints
    Eb
The people in my neighborhood
think that I'm a threat
While the boss gets richer
                Bb Eb
they get deeper in debt!


(Repeat Refrain)


Chorus 2:
Eb          G#
Give up the grudge
Eb                G#
Shut your fucking mouth
Eb            G#
why you gotta judge
     Cm           Bb
everybody but yourself
Eb           G#
Take a look around you
      Eb           G#
There ain't nobody home
Eb         G#
I may be a loser
       Cm        Bb
But at least I'm not alone


Guitar Solo: Eb---Bb-Eb- x4

Guitar 2: Solo:
       Eb      Bb             Eb             Bb   Eb
e|---------3-|----|-3h4p3----------3--3h4-|-3---|---|
B|-4---4-6---|----|-------6-4--4-6--------|---6-|-4-|
G|-----------|----|-----------------------|-----|---|
D|-----------|----|-----------------------|-----|---|
A|-----------|----|-----------------------|-----|---|
E|-----------|----|-----------------------|-----|---|

           Eb              Bb               Eb              
  Eb
e|-11--11-13-15--15-13-|-11-13-|-11---11--11-11-9--8--9-8-|----|----|
B|---------------------|-------|--------------------------|-11-|----|
G|---------------------|-------|--------------------------|----|-8--|
D|---------------------|-------|--------------------------|----|----|
A|---------------------|-------|--------------------------|----|----|
E|---------------------|-------|--------------------------|----|----|

Very fast Sweeping!!!: Eb-C#-Cm-Bb-G#-Gm

Guitar 2: Sweeping
     Eb       C#     Cm
e|-----11-|-----11-|----|
B|-11-----|--9-----|-8--|
G|--------|--------|----|
D|--------|--------|----|
A|--------|--------|----|
E|--------|--------|----|

         Very fast sweeping part
E|-16p15p11----11-------------------------|
A|----------14----14p13p11h13h14p13p11----|
G|-------------------------------------13-|
D|----------------------------------------|
A|----------------------------------------|
E|----------------------------------------|


Chorus 3:
Eb          G#
Give up the grudge
Eb                G#
Shut your fucking mouth
Eb            G#
why you gotta judge
     Cm           Bb
everybody but yourself
Eb           G#
Take a look around you
      Eb           G#
There ain't nobody home
Eb         G#
I may be a loser
       Cm        Bb
But at least I'm not alone
Eb          G#
Give up the grudge
Eb                G#
Shut your fucking mouth
Eb            G#
why you gotta judge
     Cm           Bb
everybody but yourself
Eb           G#
Take a look around you
      Eb           G#
There ain't nobody home
Eb         G#
I may be a loser
       B              Bb
But at least I'm not alone
But at least I'm not alone


Chorus 4:
Eb          G#
Give up the grudge
Eb                G#
Shut your fucking mouth
Eb            G#
why you gotta judge
     Cm           Bb
everybody but yourself
Eb           G#
Take a look around you
      Eb           G#
There ain't nobody home
Eb         G#
I may be a loser
       Cm        Bb
But at least I'm not alone
Eb          G#
Give up the grudge
Eb                G#
Shut your fucking mouth
Eb            G#
why you gotta judge
     Cm           Bb
everybody but yourself
Eb           G#
Take a look around you
      Eb           G#
There ain't nobody home
Eb         G#
I may be a loser
       Cm        Bb
But at least I'm not alone
Eb          G#
Give up the grudge
Eb                G#
Shut your fucking mouth
Eb            G#
why you gotta judge
     Cm           Bb
everybody but yourself
Eb           G#
Take a look around you
      Eb           G#
There ain't nobody home
Eb         G#
I may be a loser
       Cm        Bb
But at least I'm not alone


Outro: Eb-C#-Cm-Bb-G#-Gm

            
            
Suggest correction
Creating personal tab
Creating personal tab
You can edit any tab online and save it as your Personal.

You can edit, replace or remove any tab part or add personal notes – all changes will be seen only by you.

Personal tabs can be accessed anytime from any device, even offline.
Learn more »
Give kudos to tab author, rate the tab!
1 2 3 4 5
comments
print report bad tab
guest
You may want to rate the tab now too:
select rating
Wanna post a correction for this tab? Suggest correction