Oops, an error
Loading. Please wait.

Nothing New ukulele

version 1
version 1

Whole song

Interactive

by Gob
15 views 1 this week
no commentswrite comment
1 2 3 4 5
3 more votes to show rating
add to favorites
×
Save as Personal and add changes to this tab that will be seen only by you. Learn more ›
×
You can save this tab as Personal to edit and correct it or add notes. All changes will be seen only by you. Learn more »
launch autoscroll
font size
0
reset
transpose
0
reset
display chords
guitar tuner
edit
Autoscroll
slow
fast
+/-
esc
set tempo
stop
Strumming
There is no strumming pattern for this song yet. and get +5 IQ
Gob
Nothing New
How Far Shallow Takes You
1998
Submitted by: paramore_fans@yahoo.com

Key: G#

Tuning: Standard EADGBe

Chords used:
G#/C - x365xx
C# -   x46664
G# -   466544
Eb -   x68886


Intro:

Guitar Solo without bass and drums: x2
   G#/C      C#      G#         Eb
e|-------|-------|-------|---------------|
B|-------|-------|-------|---------------|
G|---0-1-|---3-5-|---5-3-|---1-0---1-0---|
D|-------|-------|-------|-1-----1-----1-|
A|-3-----|-4-----|-------|---------------|
E|-------|-------|-4-----|---------------|

   G#/C      C#      G#         Eb
e|-------|-------|-------|---------------|
B|-------|-------|-------|---------------|
G|---0-1-|---3-5-|---5-3-|---1-0---3-1-0-|
D|-------|-------|-------|-1-----1-------|
A|-3-----|-4-----|-------|---------------|
E|-------|-------|-4-----|---------------|


Distortion + bass + Drums: x2
        G#/C               C#
e|-----------------|-----------------|
B|-----------------|-----------------|
G|---0-1---3-5---5-|-3---1-0---1-0---|
D|-----------------|---1-----1-----1-|
A|-3-----4---------|-----------------|
E|-------------4---|-----------------|

         G#                Eb
e|-----------------|-----------------|
B|-----------------|-----------------|
G|---0-1---3-5---5-|-3---1-0---3-1-0-|
D|-----------------|---1-----1-------|
A|-3-----4---------|-----------------|
E|-------------4---|-----------------|


Verse 1:
 G#/C          C#
another dollar fifty
 G#          Eb
another ride on the bus
    G#/C                C#
the seat left alone is still warm
    G#             Eb
the person next to me talks
         G#/C
to me as if he knows me
    C#       G#
but thats ok I don't mind
  Eb
I look out the window
      G#/C          C#
while he talks on I do the usual


Chorus 1:
G#                Eb
try to figure out what
these people do
G#/C         C#
in their own solitude
G#             Eb
  some seem so plain
     G#/C
some seem so lonesome
C#                 G#
lost depressed and true
     Eb
it's all inside of you


Interlude: G#/C-C#-G#-Eb-


Verse 2:
G#/C          C#
wandering and waiting
G#
all your life for
Eb
something new
   G#/C
to change you
    C#
but it all seems to
G#
turn in circles
Eb
nothing's new
G#/C        C#
finding and learning
G#
all you need is
Eb
something to guide you
G#/C
nothing stimulates
C#
no inspiration


Chorus 2:
G#                Eb
try to figure out what
these people do
G#/C         C#
in their own solitude
G#             Eb
  some seem so plain
     G#/C
some seem so lonesome
C#                 G#
lost depressed and true
     Eb
it's all inside of you
G#/C     C#
    it's all inside of you
G#       Eb
    it's all inside of you


Interlude:

Bass Solo:
            G#/C                Fm
G|-5-5---3--1-|-5-5---------|---------|
D|------------|-----5-------|---------|
A|-----3------|-------3-6-3-|---------|
E|------------|-------------|-1-1-1-1-|
        x2

Guitar 1: G#/C-C#-Eb-Fm- x4

Guitar 2:
      G#/C          C#          Eb        Fm
e|------------|------------|----------|---------|
B|------------|------------|----------|---------|
G|-5-5----0h1-|-6-6----3h5-|-8-8--8-8-|---------|
D|-6-6--------|-6-6--------|-8-8--8-8-|-3-3-3-3-|
A|-3-3--3-----|-4-4--4-----|-6-6--6-6-|-3-3-3-3-|
E|------------|------------|----------|-1-1-1-1-|

Bass:
      G#/C          C#           Eb         Fm
G|-5-5---3--1-|-5-5---3--1-|-5-5---3--1-|---------|
D|------------|------------|------------|---------|
A|-----3------|-----4------|-----6------|---------| x4
E|------------|------------|------------|-1-1-1-1-|

G#/C-C#-G#-Eb-


Chorus 3:
G#                Eb
try to figure out what
these people do
G#/C         C#
in their own solitude
G#             Eb
  some seem so plain
     G#/C
some seem so lonesome
C#                 G#
lost depressed and true
     Eb
it's all inside of you
G#/C     C#
    it's all inside of you
G#       Eb
    it's all inside of you
G#/C     C#
    it's all inside of you
G#       Eb               G#/C(hold)
    it's all inside of you

            
            
Suggest correction
Creating personal tab
Creating personal tab
You can edit any tab online and save it as your Personal.

You can edit, replace or remove any tab part or add personal notes – all changes will be seen only by you.

Personal tabs can be accessed anytime from any device, even offline.
Learn more »
Give kudos to tab author, rate the tab!
1 2 3 4 5
comments
print report bad tab
guest
Wanna post a correction for this tab? Suggest correction