Oops, an error
Loading. Please wait.

Ghost tab

94 views 1 this week
no commentswrite comment
1 2 3 4 5
3 more votes to show rating
add to favorites
×
Save as Personal and add changes to this tab that will be seen only by you. Learn more ›
×
You can save this tab as Personal to edit and correct it or add notes. All changes will be seen only by you. Learn more »
launch autoscroll
font size
0
reset
how to read this tab
guitar tuner
edit
Autoscroll
slow
fast
+/-
esc
set tempo
stop
[Intro]

e|---------------------------------------------------------------------------|
B|---------------------------------------------------------------------------|
G|----5---5-5-5----5---5-5-5----5---5-5-5----5---5-5-5-----------------------|
D|----4---4-4-4----4---4-4-4----4---4-4-4----4---4-4-4-----------------------|
A|----5---5-5-5----5---5-5-5----5---5-5-5----5---5-5-5-----------------------|
D|-0------------0------------0------------0----------------------------------|

e|---------------------------------------------------------------------------|
B|---------------------------------------------------------------------------|
G|----4---4-4-4----4---4-4-4----3---3-3-3------------------------------------|
D|---------------------------------------------------------------------------|
A|----5---5-5-5----5---5-5-5----4---4-4-4---6-6-6-5-3------------------------|
D|-0--5---5-5-5-0--5---5-5-5-0--4---4-4-4-0-6-6-6-5-3-0----------------------|


[Verse]

e|---------------------------------------------------------------------------|
B|---------------------------------------------------------------------------|
G|----5---5-5-5----5---5-5-5----5---5-5-5----5---5-5-5-----------------------|
D|----4---4-4-4----4---4-4-4----4---4-4-4----4---4-4-4-----------------------|
A|----5---5-5-5----5---5-5-5----5---5-5-5----5---5-5-5-----------------------|
D|-0------------0------------0------------0----------------------------------|

e|---------------------------------------------------------------------------|
B|---------------------------------------------------------------------------|
G|----4---4-4-4----4---4-4-4----3---3-3-3------------------------------------|
D|---------------------------------------------------------------------------|
A|----5---5-5-5----5---5-5-5----4---4-4-4---6-6-6-5-3------------------------|
D|-0--5---5-5-5-0--5---5-5-5-0--4---4-4-4-0-6-6-6-5-3-0----------------------|

e|---------------------------------------------------------------------------|
B|---------------------------------------------------------------------------|
G|----5---5-5-5----5---5-5-5----5---5-5-5----5---5-5-5-----------------------|
D|----4---4-4-4----4---4-4-4----4---4-4-4----4---4-4-4-----------------------|
A|----5---5-5-5----5---5-5-5----5---5-5-5----5---5-5-5-----------------------|
D|-0------------0------------0------------0----------------------------------|

e|---------------------------------------------------------------------------|
B|---------------------------------------------------------------------------|
G|----4---4-4-4----4---4-4-4----3---3-3-3------------------------------------|
D|---------------------------------------------------------------------------|
A|----5---5-5-5----5---5-5-5----4---4-4-4---6-6-6-5-3------------------------|
D|-0--5---5-5-5-0--5---5-5-5-0--4---4-4-4-0-6-6-6-5-3-0----------------------|


[Chorus]

e|---------------------------------------------------------------------------|
B|---------------------------------------------------------------------------|
G|---------------------------------------------------------------------------|
D|---------------------------------------------------------5h6p5p0-3---------|
A|-3---3-----2-2-2-3---3-------5---3---3-----2-2-2-3---3---------------------|
D|-3-0-3-0-0-2-2-2-3-0-3-0-0-6-----3-0-3-0-0-2-2-2-3-0-3-0-------------------|

e|---------------------------------------------------------------------------|
B|---------------------------------------------------------------------------|
G|---------------------------------------------------------------------------|
D|---------------------------------------------------------5h6p5p0-3---------|
A|-3---3-----2-2-2-3---3-------5---3---3-----2-2-2-3---3---------------------|
D|-3-0-3-0-0-2-2-2-3-0-3-0-0-6-----3-0-3-0-0-2-2-2-3-0-3-0-------------------|


[Pre-Verse]

e|---------------------------------------------------------------------------|
B|---------------------------------------------------------------------------|
G|---5----5----5----5----5----5-----5----5----5----5----5----5---------------|
D|-----4----4----4----4----4----3-----4----4----4----4----4----3-------------|
A|-------5----5----5----5----4----------5----5----5----5----4----------------|
D|-0------------------------------0------------------------------------------|

e|---------------------------------------------------------------------------|
B|---------------------------------------------------------------------------|
G|---5----5----5----5----5----5-----5----5-----------------------------------|
D|-----4----4----4----4----4----3-----4----4---6b----------------------------|
A|-------5----5----5----5----4----------5----5-6b----------------------------|
D|-0------------------------------0----------0-6b----------------------------|


[Verse]

e|---------------------------------------------------------------------------|
B|---------------------------------------------------------------------------|
G|----5---5-5-5----5---5-5-5----5---5-5-5----5---5-5-5-----------------------|
D|----4---4-4-4----4---4-4-4----4---4-4-4----4---4-4-4-----------------------|
A|----5---5-5-5----5---5-5-5----5---5-5-5----5---5-5-5-----------------------|
D|-0------------0------------0------------0----------------------------------|

e|---------------------------------------------------------------------------|
B|---------------------------------------------------------------------------|
G|----4---4-4-4----4---4-4-4----3---3-3-3------------------------------------|
D|---------------------------------------------------------------------------|
A|----5---5-5-5----5---5-5-5----4---4-4-4---6-6-6-5-3------------------------|
D|-0--5---5-5-5-0--5---5-5-5-0--4---4-4-4-0-6-6-6-5-3-0----------------------|

e|---------------------------------------------------------------------------|
B|---------------------------------------------------------------------------|
G|----5---5-5-5----5---5-5-5----5---5-5-5----5---5-5-5-----------------------|
D|----4---4-4-4----4---4-4-4----4---4-4-4----4---4-4-4-----------------------|
A|----5---5-5-5----5---5-5-5----5---5-5-5----5---5-5-5-----------------------|
D|-0------------0------------0------------0----------------------------------|

e|---------------------------------------------------------------------------|
B|---------------------------------------------------------------------------|
G|----4---4-4-4----4---4-4-4----3---3-3-3------------------------------------|
D|---------------------------------------------------------------------------|
A|----5---5-5-5----5---5-5-5----4---4-4-4---6-6-6-5-3------------------------|
D|-0--5---5-5-5-0--5---5-5-5-0--4---4-4-4-0-6-6-6-5-3-0----------------------|


[Chorus]

e|---------------------------------------------------------------------------|
B|---------------------------------------------------------------------------|
G|---------------------------------------------------------------------------|
D|---------------------------------------------------------5h6p5p0-3---------|
A|-3---3-----2-2-2-3---3-------5---3---3-----2-2-2-3---3---------------------|
D|-3-0-3-0-0-2-2-2-3-0-3-0-0-6-----3-0-3-0-0-2-2-2-3-0-3-0-------------------|

e|---------------------------------------------------------------------------|
B|---------------------------------------------------------------------------|
G|---------------------------------------------------------------------------|
D|---------------------------------------------------------5h6p5p0-3---------|
A|-3---3-----2-2-2-3---3-------5---3---3-----2-2-2-3---3---------------------|
D|-3-0-3-0-0-2-2-2-3-0-3-0-0-6-----3-0-3-0-0-2-2-2-3-0-3-0-------------------|


[Bridge]

e|---------------------------------------------------------------------------|
B|---------------------------------------------------------------------------|
G|---------------------------------------------------------------------------|
D|----5h6p5p0-3-----------------------5h6p5p0-3------------------------------|
A|-------------------3-3-2---6-6-5-------------------3-3-2---6-6-5-----------|
D|-0------------0--0-3-3-2-0-6-6-5-0------------0--0-3-3-2-0-6-6-5-----------|

e|---------------------------------------------------------------------------|
B|---------------------------------------------------------------------------|
G|---------------------------------------------------------------------------|
D|----5h6p5p0-3-----------------------5h6p5p0-3------------------------------|
A|-------------------3-3-2---6-6-5-------------------3-3-2---6-6-5-----------|
D|-0------------0--0-3-3-2-0-6-6-5-0------------0--0-3-3-2-0-6-6-5-----------|

e|---------------------------------------------------------------------------|
B|---------------------------------------------------------------------------|
G|---5----5----5----5----5----5-----5----5----5----5----5----5---------------|
D|-----4----4----4----4----4----3-----4----4----4----4----4----3-------------|
A|-------5----5----5----5----4----------5----5----5----5----4----------------|
D|-0------------------------------0------------------------------------------|

e|---------------------------------------------------------------------------|
B|---------------------------------------------------------------------------|
G|---5----5----5----5----5----5-----5----5-----------------------------------|
D|-----4----4----4----4----4----3-----4----4---6b----------------------------|
A|-------5----5----5----5----4----------5----5-6b----------------------------|
D|-0------------------------------0----------0-6b----------------------------|


[Chorus]

e|---------------------------------------------------------------------------|
B|---------------------------------------------------------------------------|
G|---------------------------------------------------------------------------|
D|---------------------------------------------------------5h6p5p0-3---------|
A|-3---3-----2-2-2-3---3-------5---3---3-----2-2-2-3---3---------------------|
D|-3-0-3-0-0-2-2-2-3-0-3-0-0-6-----3-0-3-0-0-2-2-2-3-0-3-0-------------------|

e|---------------------------------------------------------------------------|
B|---------------------------------------------------------------------------|
G|---------------------------------------------------------------------------|
D|---------------------------------------------------------5h6p5p0-3---------|
A|-3---3-----2-2-2-3---3-------5---3---3-----2-2-2-3---3---------------------|
D|-3-0-3-0-0-2-2-2-3-0-3-0-0-6-----3-0-3-0-0-2-2-2-3-0-3-0-------------------|

e|---------------------------------------------------------------------------|
B|---------------------------------------------------------------------------|
G|---------------------------------------------------------------------------|
D|---------------------------------------------------------5h6p5p0-3---------|
A|-3---3-----2-2-2-3---3-------5---3---3-----2-2-2-3---3---------------------|
D|-3-0-3-0-0-2-2-2-3-0-3-0-0-6-----3-0-3-0-0-2-2-2-3-0-3-0-------------------|

e|---------------------------------------------------------------------------|
B|---------------------------------------------------------------------------|
G|---------------------------------------------------------------------------|
D|---------------------------------------------------------5h6p5p0-3---------|
A|-3---3-----2-2-2-3---3-------5---3---3-----2-2-2-3---3---------------------|
D|-3-0-3-0-0-2-2-2-3-0-3-0-0-6-----3-0-3-0-0-2-2-2-3-0-3-0-------------------|


[Outro]

e|---------------------------------------------------------------------------|
B|---------------------------------------------------------------------------|
G|---5----5----5----5----5----5-----5----5----5----5----5----5---------------|
D|-----4----4----4----4----4----3-----4----4----4----4----4----3-------------|
A|-------5----5----5----5----4----------5----5----5----5----4----------------|
D|-0------------------------------0------------------------------------------|

e|---------------------------------------------------------------------------|
B|---------------------------------------------------------------------------|
G|---5----5----5----5----5----5-----5----5-----------------------------------|
D|-----4----4----4----4----4----3-----4----4---6b----------------------------|
A|-------5----5----5----5----4----------5----5-6b----------------------------|
D|-0------------------------------0----------0-6b----------------------------|



************************************

| h  Hammer-on
| p  Pull-off
| b  Bend

************************************

            
            
Suggest correction
Creating personal tab
Creating personal tab
You can edit any tab online and save it as your Personal.

You can edit, replace or remove any tab part or add personal notes – all changes will be seen only by you.

Personal tabs can be accessed anytime from any device, even offline.
Learn more »
Give kudos to tab author, rate the tab!
1 2 3 4 5
comments
print report bad tab
guest
You may want to rate the tab now too:
select rating
Wanna post a correction for this tab? Suggest correction