Oops, an error
Loading. Please wait.
We have an official New Years End tab made by UG professional guitarists. Check out the tab »
×
16,933 views 33 this week
1 commentread comment
1 2 3 4 5
x 10
add to favorites
×
Save as Personal and add changes to this tab that will be seen only by you. Learn more ›
×
You can save this tab as Personal to edit and correct it or add notes. All changes will be seen only by you. Learn more »
launch autoscroll
font size
0
reset
how to read this tab
guitar tuner
edit
Autoscroll
slow
fast
+/-
esc
set tempo
stop
---------------------------------------------------------------------------------
                             NEW YEARS END - God Is An Astronaut
---------------------------------------------------------------------------------
Tabbed by: Jeff Cameron
Email: jcameron99@gmail.com
4/8/10

Tuning: Drop D

This one took me relatively little time to figure out, and I think most of you will have
easy and fun time learning this.  I was a bit disturbed by the lack of GIAA tabs
so I thought I’d contribute.  I didn’t include the rhythm guitar because it’s very hard 
hear, but I may update this.  Bass intro included for your pleasure, and to correct the other
intro tab that’s been posted.
Enjoy!

Bass intro - 0:00
G|----12-------12-------12------------------------------------------------------|
D|-------14-------14-------14-14/16-16-16---------------------------------------|
A|----------------------------------------14/17-17-17---------------------------|
D|--14------14-------14---------------------------------------------------------|

G|-----11-------11---------0----------------------------------------------------|
D|--------12-------12--------12-12/10-10----------------------------------------|
A|------------------------------------------------------------------------------|
D|--12-------12---------10------------------------------------------------------|

G|----12-------12-------12------------------------------------------------------|
D|-------14-------14-------14-14/16-16-16---------------------------------------|
A|----------------------------------------14/17-17-17---------------------------|
D|--14------14-------14---------------------------------------------------------|

G|-----11-------11---------9----------------------------------------------------|
D|------------------------------------------------------------------------------|
A|--------12-------12--------10/12-12-12-10-------------------------------------|
D|--12-------12---------10------------------------------------------------------|

Verse A, Guitar 1 comes in over (Bass intro) - 0:22
e|------------------------------------------------------------------------------|
B|------------------------------------------------------------------------------|
G|-------2---0---------0---------0----------2---0---------0---------0-------0---|
D|-0-2-5---5---5-5/7-7---7-7/9-9---9--0-2-5---5---5-5/7-7---7-7\2-2---2-2-0---0-|
A|------------------------------------------------------------------------------|
D|------------------------------------------------------------------------------|

e|------------------------------------------------------------------------------|
B|------------------------------------------------------------------------------|
G|-------2---0---------0---------0----------2---0---------0---7-9-7-------------|
D|-0-2-5---5---5-5/7-7---7-7/9-9---9--0-2-5---5---5-5/7-7-----------9-7h9-7\5---|
A|------------------------------------------------------------------------------|
D|------------------------------------------------------------------------------|

Verse B - 0:42
e|------------------------------------------------------------------------------|
B|------------------------------------------------------------------------------|
G|-------4---0---------0---------0----------4---0---------0---------0-------0---|
D|-0-2/5---5---5-5/7-7---7-7/9-9---9--0-2/5---5---5-5/7-7---7-7\2-2---2-2-0---0-|
A|------------------------------------------------------------------------------|
D|------------------------------------------------------------------------------|

e|------------------------------------------------------------------------------|
B|------------------------------------------------------------------------------|
G|-------4---0---------0---------0----------4---0---------0--------9------------|
D|-0-2/5---5---5-5/7-7---7-7/9-9---9--0-2/5---5---5-5/7-7---5-9/12---12-9----0--|
A|------------------------------------------------------------------------12----|
D|------------------------------------------------------------------------------|

Verse C - 1:02
e|------------------------------------------------------------------------------|
B|------------------------------------------------------------------------------|
G|-------2---0---------0---------0----------2---0---------0---------0-------0---|
D|-0-2-5---5---5-5/7-7---7-7/9-9---9--0-2-5---5---5-5/7-7---7-7\2-2---2-2-0---0-|
A|------------------------------------------------------------------------------|
D|------------------------------------------------------------------------------|

e|------------------------------------------------------------------------------|
B|------------------------------------------------------------------------------|
G|-------4---0---------0---------0----------4---0---------0--------9------------|
D|-0-2/5---5---5-5/7-7---7-7/9-9---9--0-2/5---5---5-5/7-7---5-9/12---12-9----0--|
A|------------------------------------------------------------------------12----|
D|------------------------------------------------------------------------------|

Chorus - 1:23
slide up to 12 at end of phrases with pinky in order to fret the 9 on the downbeat
e|-----------------------------------10---10h12p10-10---------------------------|
B|----12---12---13----13-12---12-----------------------12\10--10\8-8/-----------|
G|--9----9----9-----9-------9---------------------------------------------------|
D|------------------------------------------------------------------------------|
A|------------------------------------------------------------------------------|
D|------------------------------------------------------------------------------|

e|-----------------------------------10---10h12p10-10---------------------------|
B|----12---12---13---13-12---12------------------------12-12-10/----------------|
G|--9----9----9----9-------9----------------------------------------------------|
D|------------------------------------------------------------------------------|
A|------------------------------------------------------------------------------|
D|------------------------------------------------------------------------------|

e|-----------------------------------10---10h12p10-10---------------------------|
B|----12---12---13----13-12---12-----------------------12\10--10\8-8/-----------|
G|--9----9----9-----9-------9---------------------------------------------------|
D|------------------------------------------------------------------------------|
A|------------------------------------------------------------------------------|
D|------------------------------------------------------------------------------|

e|-----------------------------------10---10h12p10-10---------------------------|
B|----12---12---13---13-12---12------------------------12-12\8-8----------------|
G|--9----9----9----9-------9----------------------------------------------------|
D|------------------------------------------------------------------------------|
A|------------------------------------------------------------------------------|
D|------------------------------------------------------------------------------|

Verse D - 2:00
e|------------------------------------------------------------------------------|
B|------------------------------------------------------------------------------|
G|-------4---0---------0---------0----------4---0---------0---------0-------0---|
D|-0-2/5---5---5-5/7-7---7-7/9-9---9--0-2/5---5---5-5/7-7---7-7\2-2---2-2-0---0-|
A|------------------------------------------------------------------------------|
D|------------------------------------------------------------------------------|

e|------------------------------------------------------------------------------|
B|------------------------------------------------------------------------------|
G|-------4---0---------0---------0----------4---0---------0--------9------------|
D|-0-2/5---5---5-5/7-7---7-7/9-9---9--0-2/5---5---5-5/7-7---5-9/12---12-9----0--|
A|------------------------------------------------------------------------12----|
D|------------------------------------------------------------------------------|

Verse E - 2:21
e|------------------------------------------------------------------------------|
B|------------------------------------------------------------------------------|
G|-------2---0---------0---------0----------2---0---------0---------0-------0---|
D|-0-2-5---5---5-5/7-7---7-7/9-9---9--0-2-5---5---5-5/7-7---7-7\2-2---2-2-0---0-|
A|------------------------------------------------------------------------------|
D|------------------------------------------------------------------------------|

e|------------------------------------------------------------------------------|
B|------------------------------------------------------------------------------|
G|-------4---0---------0---------0----------2---0---------0---7-9-7-------------|
D|-0-2/5---5---5-5/7-7---7-7/9-9---9--0-2-5---5---5-5/7-7-----------9-7h9-7\5---|
A|------------------------------------------------------------------------------|
D|------------------------------------------------------------------------------|

Bridge - 2:42
e|------------------------------------------------------------------------------|
B|--8-8-8-8-7-7-7-7-10-10-10-10-12-12-12-12-------------------------------------|
G|--9-9-9-9-9-9-9-9-9--9--9--9--9--9--9--9--------------------------------------|
D|------------------------------------------------------------------------------|
A|------------------------------------------------------------------------------|
D|------------------------------------------------------------------------------|

e|------------------------------------------------------------------------------|
B|------------------------------------------------------------------------------|
G|--7/9-9-9--7-7--/11-11-11-11--9-9---------------------------------------------|
D|--5/7-7-7--5-5--/9--9--9--9---7-7---------------------------------------------|
A|------------------------------------------------------------------------------|
D|------------------------------------------------------------------------------|

e|------------------------------------------------------------------------------|
B|--8-8-8-8-7-7-7-7-------------------------------------------------------------|
G|--9-9-9-9-9-9-9-9--7/9-9-9--7-7-----------------------------------------------|
D|-------------------5/7-7-7--5-5-----------------------------------------------|
A|------------------------------------------------------------------------------|
D|------------------------------------------------------------------------------|

e|------------------------------------------------------------------------------|
B|--/15-15-15-15-12--12-12-10-10/12-12-12--10-10--------------------------------|
G|---0--0--0--0--0---0--0--0--0-----0--0---0--0---------------------------------|
D|------------------------------------------------------------------------------|
A|------------------------------------------------------------------------------|
D|------------------------------------------------------------------------------|

Chorus - 3:00
e|-----------------------------------10---10h12p10-10---------------------------|
B|----12---12---13----13-12---12-----------------------12\10--10\8-8//----------|
G|--9----9----9-----9-------9---------------------------------------------------|
D|------------------------------------------------------------------------------|
A|------------------------------------------------------------------------------|
D|------------------------------------------------------------------------------|

e|-----------------------------------10---10h12p10-10---------------------------|
B|----12---12---13---13-12---12------------------------12-12-10//---------------|
G|--9----9----9----9-------9----------------------------------------------------|
D|------------------------------------------------------------------------------|
A|------------------------------------------------------------------------------|
D|------------------------------------------------------------------------------|

e|-----------------------------------10---10h12p10-10---------------------------|
B|----12---12---13----13-12---12--------------------------12--12\8-8------------|
G|--9----9----9-----9-------9---------------------------------------------------|
D|-----------------------------------------------------12-----------------------|
A|------------------------------------------------------------------------------|
D|------------------------------------------------------------------------------|

Bridge 2 - 3:28
e|------------------------------------------------------------------------------|
B|--------3----0---------3------------------------------------------------------|
G|----0------0--------------0---0--2/4-4-4--4-4--/9-9\7-7-7\4-4p0-4\\-----------|
D|--2---2------------4--------4-------------------------------------------------|
A|-----------------5---5--------------------------------------------------------|
D|------------------------------------------------------------------------------|

e|------------------------------------------------------------------------------|
B|--------3----0---------3------------------------------------------------------|
G|----0------0--------------0---0--2/4-4-4--2-2--/7-7\4-4-4\2-2-2\\-------------|
D|--2---2------------4--------4-------------------------------------------------|
A|-----------------5---5--------------------------------------------------------|
D|------------------------------------------------------------------------------|

e|------------------------------------------------------------------------------|
B|--------3----0---------3------------------------------------------------------|
G|----0------0--------------0---0--2/4-4-4--4-4--/9-9\7-7-7\4-4p0-4\\-----------|
D|--2---2------------4--------4-------------------------------------------------|
A|-----------------5---5--------------------------------------------------------|
D|------------------------------------------------------------------------------|

e|------------------------------------------------------------------------------|
B|--------3----0---------3-----------------------------------------3------------|
G|----0------0--------------0----/7h9-9-9--7-7\4-4-7-7-7\2-2-2\\---0------------|
D|--2---2------------4--------4------------------------------------2------------|
A|-----------------5---5--------------------------------------------------------|
D|------------------------------------------------------------------------------|


| /  slide up
| \  slide down
| h  hammer-on
| p  pull-off
| ~  vibrato
| +  harmonic
| x  Mute note
===============================================================================

            
            
Suggest correction
Creating personal tab
Creating personal tab
You can edit any tab online and save it as your Personal.

You can edit, replace or remove any tab part or add personal notes – all changes will be seen only by you.

Personal tabs can be accessed anytime from any device, even offline.
Learn more »
comments
print report bad tab
1 comment total.
+1 reply
darkfall7788 10 May 13, 2013 08:56 AM

thanks, dude!!! i love this song=)

guest
You may want to rate the tab now too:
select rating
Wanna post a correction for this tab? Suggest correction