Oops, an error
Loading. Please wait.

Frail tab

3,070 views 1 this week
2 commentsread comments
1 2 3 4 5
1 last vote to show rating
add to favorites
×
Save as Personal and add changes to this tab that will be seen only by you. Learn more ›
×
You can save this tab as Personal to edit and correct it or add notes. All changes will be seen only by you. Learn more »
launch autoscroll
font size
0
reset
how to read this tab
guitar tuner
edit
Autoscroll
slow
fast
+/-
esc
set tempo
stop
Author
Frail                                       
Godflesh
Lead/Justin Broadrick
Drop C Tuning (CGCFAD)


     W    (feed back)    H.            Q        H        H         
D||-------------------|----------------------|--------------------|
A||-------------------|----------------------|--------------------|
F||-------------------|----------------------|--------------------|
C||-------------------|----------------------|--------------------|
G||-------------------|----------------------|--0-----------------|
C||-------------------|---------------12S----|--0--------0--------|


  Q    Q    E   E   Q       Q    Q    Q    Q       E  Q    E  E   E   Q     
-------------------------|----------------------|--------------------------|
-------------------------|----------------------|--------------------------|
-------------------------|----------------------|--------------------------|
-------------------------|----------------------|--------------------------|
------------0h--2p--0----|-------0----3---------|-----3----3--3h--5p--3----|
--L----0-----------------|--3--------------5----|--L-----------------------|


  H        H           Q    Q    E   E   Q       Q    Q    Q    Q     
--------------------|-------------------------|----------------------|
--------------------|-------------------------|----------------------|
--------------------|-------------------------|----------------------|
--------------------|-------------------------|----------------------|
--0-----------------|------------0h--2p--0----|-------0----3---------|
--0--------0--------|--L----0-----------------|--3--------------5----|


                      PH                                                   
  E  Q    E  E   E    Q       H        H           Q    Q    E   E   Q     
---------------------------|--------------------|-------------------------|
---------------------------|--------------------|-------------------------|
---------------------------|--------------------|-------------------------|
--------------------<>3----|--------------------|-------------------------|
-----3----3--3h--5---------|--0-----------------|------------0h--2p--0----|
--L------------------------|--0--------0--------|--L----0-----------------|


  Q    Q    Q    Q       E  Q    E  E   E   Q       H        H         
----------------------|--------------------------|--------------------|
----------------------|--------------------------|--------------------|
----------------------|--------------------------|--------------------|
----------------------|--------------------------|--------------------|
-------0----3---------|-----3----3--3h--5p--3----|--0-----------------|
--3--------------5----|--L-----------------------|--0--------0--------|


  Q    Q    E   E   Q       Q    Q    Q    Q       E  Q    E  E   E   Q     
-------------------------|----------------------|--------------------------|
-------------------------|----------------------|--------------------------|
-------------------------|----------------------|--------------------------|
-------------------------|----------------------|--------------------------|
------------0h--2p--0----|-------0----3---------|-----3----3--3h--5p--3----|
--L----0-----------------|--3--------------5----|--L-----------------------|


  H        H           Q    Q    E   E   Q       Q    Q    Q    Q     
--------------------|-------------------------|----------------------|
--------------------|-------------------------|----------------------|
--------------------|-------------------------|----------------------|
--------------------|-------------------------|----------------------|
--0-----------------|------------0h--2p--0----|-------0----3---------|
--0--------0--------|--L----0-----------------|--3--------------5----|


  E  Q    E  E   E  Q       H        H           Q    Q    E   E   Q     
-------------------------|--------------------|-------------------------|
-------------------------|--------------------|-------------------------|
-------------------------|--------------------|-------------------------|
--------------------3----|--------------------|-------------------------|
-----3----3--3h--5-------|--0-----------------|------------0h--2p--0----|
--L----------------------|--0--------0--------|--L----0-----------------|


  Q    Q    Q    Q       E  Q    E  E   E  Q       Q    Q    Q    Q     
----------------------|-------------------------|----------------------|
----------------------|-------------------------|----------------------|
----------------------|-------------------------|----------------------|
----------------------|--------------------3----|----------------------|
-------0----3---------|-----3----3--3h--5-------|-------2----3---------|
--3--------------5----|--L----------------------|--5--------------3----|


  Q    Q    E  Q.        Q    Q    Q    Q       Q    Q    E  Q.      
----------------------|----------------------|----------------------|
----------------------|----------------------|----------------------|
----------------------|----------------------|----------------------|
----------------------|----------------------|----------------------|
-------2----3--2------|-------2----3---------|-------2----3--2------|
--L-------------------|--5--------------2----|--L-------------------|


  Q    Q    Q    Q       Q    Q    E  Q.        Q    Q    Q    Q     
----------------------|----------------------|----------------------|
----------------------|----------------------|----------------------|
----------------------|----------------------|----------------------|
----------------------|----------------------|----------------------|
-------2----3---------|-------2----3--2------|-------2----3---------|
--5--------------3----|--L-------------------|--5--------------2----|


  Q    Q    E  Q.        H        H           Q    Q    E   E   Q     
----------------------|--------------------|-------------------------|
----------------------|--------------------|-------------------------|
----------------------|--------------------|-------------------------|
----------------------|--------------------|-------------------------|
-------2----3--2------|--0-----------------|------------0h--2p--0----|
--L-------------------|--0--------0--------|--L----0-----------------|


  Q    Q    Q    Q       E  Q    E  E   E   Q       H        H         
----------------------|--------------------------|--------------------|
----------------------|--------------------------|--------------------|
----------------------|--------------------------|--------------------|
----------------------|--------------------------|--------------------|
-------0----3---------|-----3----3--3h--5p--3----|--0-----------------|
--3--------------5----|--L-----------------------|--0--------0--------|


  Q    Q    E   E   Q       Q    Q    Q    Q       E  Q    E  E   E  Q     
-------------------------|----------------------|-------------------------|
-------------------------|----------------------|-------------------------|
-------------------------|----------------------|-------------------------|
-------------------------|----------------------|--------------------3----|
------------0h--2p--0----|-------0----3---------|-----3----3--3h--5-------|
--L----0-----------------|--3--------------5----|--L----------------------|


  H        H           Q    Q    E   E   Q       Q    Q    Q    Q     
--------------------|-------------------------|----------------------|
--------------------|-------------------------|----------------------|
--------------------|-------------------------|----------------------|
--------------------|-------------------------|----------------------|
--0-----------------|------------0h--2p--0----|-------0----3---------|
--0--------0--------|--L----0-----------------|--3--------------5----|


  E  Q    E  E   E  Q       H        H           Q    Q    E   E   Q     
-------------------------|--------------------|-------------------------|
-------------------------|--------------------|-------------------------|
-------------------------|--------------------|-------------------------|
--------------------3----|--------------------|-------------------------|
-----3----3--3h--5-------|--0-----------------|------------0h--2p--0----|
--L----------------------|--0--------0--------|--L----0-----------------|


                                             PH                           
  Q    Q    Q    Q       E  Q    E  E   E    Q       Q    Q    Q    Q     
----------------------|---------------------------|----------------------|
----------------------|---------------------------|----------------------|
----------------------|---------------------------|----------------------|
----------------------|--------------------<>3----|----------------------|
-------0----3---------|-----3----3--3h--5---------|-------2----3---------|
--3--------------5----|--L------------------------|--5--------------3----|


  Q    Q    E  Q.        Q    Q    Q    Q       Q    Q    E  Q.      
----------------------|----------------------|----------------------|
----------------------|----------------------|----------------------|
----------------------|----------------------|----------------------|
----------------------|----------------------|----------------------|
-------2----3--2------|-------2----3---------|-------2----3--2------|
--L-------------------|--5--------------2----|--L-------------------|


  Q    Q    Q    Q       Q    Q    E  Q.        Q    Q    Q    Q     
----------------------|----------------------|----------------------|
----------------------|----------------------|----------------------|
----------------------|----------------------|----------------------|
----------------------|----------------------|----------------------|
-------2----3---------|-------2----3--2------|-------2----3---------|
--5--------------3----|--L-------------------|--5--------------2----|


  Q    Q    H           Q    Q    Q    Q       Q    Q    Q    Q     
---------------------|----------------------|----------------------|
---------------------|----------------------|----------------------|
---------------------|----------------------|----------------------|
---------------------|----------------------|----------------------|
-------2----3--------|-------0----4---------|-------0----4---------|
--L------------------|--4--------------2----|--L--------------0----|


  Q    Q    Q    Q       Q    E   E   Q    Q       Q    Q    H         
----------------------|-------------------------|---------------------|
----------------------|-------------------------|---------------------|
----------------------|-------------------------|---------------------|
----------------------|-------------------------|---------------------|
--0----4----0----4----|--0----4h--5p--4---------|--0----4-------------|
----------------------|--------------------4----|------------2--------|


  Q    Q    Q    Q       Q    Q    Q    Q       E   E   Q    Q    Q     
----------------------|----------------------|-------------------------|
----------------------|----------------------|-------------------------|
----------------------|----------------------|-------------------------|
----------------------|----------------------|-------------------------|
--0----4---------0----|--4----0----4----0----|--4h--5p--4---------0----|
------------0---------|----------------------|---------------4---------|


  Q    H        Q       Q    Q    Q    Q       Q    Q    Q    E   E    
---------------------|----------------------|-------------------------|
---------------------|----------------------|-------------------------|
---------------------|----------------------|-------------------------|
---------------------|----------------------|-------------------------|
--4-------------0----|--4---------0----4----|--0----4----0----4h--5h--|
-------2-------------|-------0--------------|-------------------------|


  Q    Q    Q    Q       H        Q    Q       Q    Q    Q    Q     
----------------------|---------------------|----------------------|
----------------------|---------------------|----------------------|
----------------------|---------------------|----------------------|
----------------------|---------------------|----------------------|
--4---------0----4----|-----------0----4----|-------0----4----0----|
-------4--------------|--2------------------|--0-------------------|


  Q    Q    E   E   Q       H        H           Q    Q    E   E   Q     
-------------------------|--------------------|-------------------------|
-------------------------|--------------------|-------------------------|
-------------------------|--------------------|-------------------------|
-------------------------|--------------------|-------------------------|
--4----0----4h--5p--4----|--0-----------------|------------0h--2p--0----|
-------------------------|--0--------0--------|--L----0-----------------|


  Q    Q    Q    Q       E  Q    E  E   E   Q       H        H         
----------------------|--------------------------|--------------------|
----------------------|--------------------------|--------------------|
----------------------|--------------------------|--------------------|
----------------------|--------------------------|--------------------|
-------0----3---------|-----3----3--3h--5p--3----|--0-----------------|
--3--------------5----|--L-----------------------|--0--------0--------|


                                                                       PH    
  Q    Q    E   E   Q       Q    Q    Q    Q       E  Q    E  E   E    Q     
-------------------------|----------------------|---------------------------|
-------------------------|----------------------|---------------------------|
-------------------------|----------------------|---------------------------|
-------------------------|----------------------|--------------------<>3----|
------------0h--2p--0----|-------0----3---------|-----3----3--3h--5---------|
--L----0-----------------|--3--------------5----|--L------------------------|


  H        H           Q    Q    E   E   Q       Q    Q    Q    Q     
--------------------|-------------------------|----------------------|
--------------------|-------------------------|----------------------|
--------------------|-------------------------|----------------------|
--------------------|-------------------------|----------------------|
--0-----------------|------------0h--2p--0----|-------0----3---------|
--0--------0--------|--L----0-----------------|--3--------------5----|


  E  Q    E  E   E  Q       H        H           Q    Q    E   E   Q     
-------------------------|--------------------|-------------------------|
-------------------------|--------------------|-------------------------|
-------------------------|--------------------|-------------------------|
--------------------3----|--------------------|-------------------------|
-----3----3--3h--5-------|--0-----------------|------------0h--2p--0----|
--L----------------------|--0--------0--------|--L----0-----------------|


                                             PH                           
  Q    Q    Q    Q       E  Q    E  E   E    Q       Q    Q    Q    Q     
----------------------|---------------------------|----------------------|
----------------------|---------------------------|----------------------|
----------------------|---------------------------|----------------------|
----------------------|--------------------<>3----|----------------------|
-------0----3---------|-----3----3--3h--5---------|-------2----3---------|
--3--------------5----|--L------------------------|--5--------------3----|


  Q    Q    E  Q.        Q    Q    Q    Q       Q    Q    E  Q.      
----------------------|----------------------|----------------------|
----------------------|----------------------|----------------------|
----------------------|----------------------|----------------------|
----------------------|----------------------|----------------------|
-------2----3--2------|-------2----3---------|-------2----3--2------|
--L-------------------|--5--------------2----|--L-------------------|


  Q    Q    Q    Q       Q    Q    E  Q.        Q    Q    Q    Q     
----------------------|----------------------|----------------------|
----------------------|----------------------|----------------------|
----------------------|----------------------|----------------------|
----------------------|----------------------|----------------------|
-------2----3---------|-------2----3--2------|-------2----3---------|
--5--------------3----|--L-------------------|--5--------------2----|


  Q    Q    H           Q    Q    Q    Q       Q    Q    Q    Q     
---------------------|----------------------|----------------------|
---------------------|----------------------|----------------------|
---------------------|----------------------|----------------------|
---------------------|----------------------|----------------------|
-------2----3--------|-------0----4---------|-------0----4---------|
--L------------------|--4--------------2----|--L--------------0----|


  Q    Q    Q    Q       Q    E   E   Q    Q       Q    Q    H         
----------------------|-------------------------|---------------------|
----------------------|-------------------------|---------------------|
----------------------|-------------------------|---------------------|
----------------------|-------------------------|---------------------|
--0----4----0----4----|--0----4h--5p--4---------|--0----4-------------|
----------------------|--------------------4----|------------2--------|


  Q    Q    Q    Q       Q    Q    Q    Q       E   E   Q    Q    Q     
----------------------|----------------------|-------------------------|
----------------------|----------------------|-------------------------|
----------------------|----------------------|-------------------------|
----------------------|----------------------|-------------------------|
--0----4---------0----|--4----0----4----0----|--4h--5p--4---------0----|
------------0---------|----------------------|---------------4---------|


  Q    H        Q       Q    Q    Q    Q       Q    Q    Q    E   E    
---------------------|----------------------|-------------------------|
---------------------|----------------------|-------------------------|
---------------------|----------------------|-------------------------|
---------------------|----------------------|-------------------------|
--4-------------0----|--4---------0----4----|--0----4----0----4h--5h--|
-------2-------------|-------0--------------|-------------------------|


  Q    Q    Q    Q       H        Q    Q       Q    Q    Q    Q     
----------------------|---------------------|----------------------|
----------------------|---------------------|----------------------|
----------------------|---------------------|----------------------|
----------------------|---------------------|----------------------|
--4---------0----4----|-----------0----4----|-------0----4----0----|
-------4--------------|--2------------------|--0-------------------|


  Q    Q    E   E   Q       Q    Q    Q    Q       Q    Q    Q    Q     
-------------------------|----------------------|----------------------|
-------------------------|----------------------|----------------------|
-------------------------|----------------------|----------------------|
-------------------------|----------------------|----------------------|
--4----0----4h--5p--4----|-------0----4---------|-------0----4---------|
-------------------------|--4--------------2----|--L--------------0----|


  Q    Q    Q    Q       Q    E   E   Q    Q       Q    Q    H         
----------------------|-------------------------|---------------------|
----------------------|-------------------------|---------------------|
----------------------|-------------------------|---------------------|
----------------------|-------------------------|---------------------|
--0----4----0----4----|--0----4h--5p--4---------|--0----4-------------|
----------------------|--------------------4----|------------2--------|


  Q    Q    Q    Q       Q    Q    Q    Q       E   E   Q    Q    Q     
----------------------|----------------------|-------------------------|
----------------------|----------------------|-------------------------|
----------------------|----------------------|-------------------------|
----------------------|----------------------|-------------------------|
--0----4---------0----|--4----0----4----0----|--4h--5p--4---------0----|
------------0---------|----------------------|---------------4---------|


  Q    H        Q       Q    Q    Q    Q       Q    Q    Q    E   E    
---------------------|----------------------|-------------------------|
---------------------|----------------------|-------------------------|
---------------------|----------------------|-------------------------|
---------------------|----------------------|-------------------------|
--4-------------0----|--4---------0----4----|--0----4----0----4h--5h--|
-------2-------------|-------0--------------|-------------------------|


  Q    Q    Q    Q       H        Q    Q       Q    Q    Q    Q     
----------------------|---------------------|----------------------|
----------------------|---------------------|----------------------|
----------------------|---------------------|----------------------|
----------------------|---------------------|----------------------|
--4---------0----4----|-----------0----4----|-------0----4----0----|
-------4--------------|--2------------------|--0-------------------|


                    ^                                             
  Q    Q    E   E   Q       W                   W                 
-------------------------|-------------------|-------------------|
-------------------------|-------------------|-------------------|
-------------------------|-------------------|-------------------|
-------------------------|-------------------|-------------------|
--4----0----4h--5p--4----|--L----------------|--L----------------|
-------------------------|-------------------|-------------------|


  W                   W                   W                 
-------------------|-------------------|-------------------|
-------------------|-------------------|-------------------|
-------------------|-------------------|-------------------|
-------------------|-------------------|-------------------|
--L----------------|--L----------------|--L----------------|
-------------------|-------------------|-------------------|


-------------------||
-------------------||
-------------------||
-------------------||
-------------------||
-------------------||




Duration Legend
---------------
W - whole
H - half
Q - quarter
E - 8th
S - 16th
T - 32nd
X - 64th
. - note dotted
|-n-|  - n-tuplets


Tablature Legend
----------------
L - tied note
x - dead note
g - grace note
(n) - ghost note
> - accentuded note
NH - natural harmonic
AH - artificial harmonic
TH - tapped harmonic
SH - semi harmonic
PH - pitch harmonic
h - hammer on
p - pull off
b - bend
br - bendRelease
pb - preBend
pbr - preBendRelease
brb - bendReleaseBend
\n/ - tremolo bar dip
\n - tremolo bar dive
-/n - tremolo bar Release up
/n\ - tremolo bar inverted dip
/n - tremolo bar return
-\n - tremolo bar Release down
S - shift slide
s - legato slide
/ -  slide into from below or out of upwards
\ -  slide into from above or out of downwards
~ - vibrato
W - wide vibrato
tr - trill
TP - tremolo picking
T - tapping
S - slap
P - pop
< - fade in
^ - brush up
v - brush down

            
            
Suggest correction
Creating personal tab
Creating personal tab
You can edit any tab online and save it as your Personal.

You can edit, replace or remove any tab part or add personal notes – all changes will be seen only by you.

Personal tabs can be accessed anytime from any device, even offline.
Learn more »
Give kudos to tab author, rate the tab!
1 2 3 4 5
comments
print report bad tab
2 comments total.
0 reply
6slaytanic66 130 Apr 22, 2008 06:29 PM

Made an error on the bridge:
----------------------|----------------------|----------------------|
----------------------|----------------------|----------------------|
----------------------|----------------------|----------------------|
----------------------|----------------------|----------------------|
-------2----3---------|-------2----3--2------|-------2----3---------|
--5--------------3----|--L-------------------|--2--------------3----|
*^* *^*
should be that.

and on the chorus:
--------------------------|----------------------|-------------------------|
--------------------------|----------------------|-------------------------|
--------------------------|----------------------|-------------------------|
--------------------------|----------------------|-------------------------|
--0----4---0---------0----|--4----0----4----0----|--4h--5p--4---------0----|
----------------0---------|----------------------|---------------4---------|
*^*
should be that.
I apologize for not correcting this beforehand.

0 reply
6slaytanic66 130 Apr 22, 2008 06:32 PM

disregard *^*, it didn't line up properly.

guest
You may want to rate the tab now too:
select rating
Wanna post a correction for this tab? Suggest correction