Oops, an error
Loading. Please wait.

Far Too Long bass

by Godhead
311 views 1 this week
1 commentread comment
1 2 3 4 5
1 last vote to show rating
add to favorites
×
Save as Personal and add changes to this tab that will be seen only by you. Learn more ›
×
You can save this tab as Personal to edit and correct it or add notes. All changes will be seen only by you. Learn more »
launch autoscroll
font size
0
reset
guitar tuner
edit
Autoscroll
slow
fast
+/-
esc
set tempo
stop
----------------------------------------------------------------------------
		    Far Too Long - Godhead
----------------------------------------------------------------------------

Tabbed By : Jason veliu AKA 69usefulidiot69
e-mail:  Somebody_some1@yahoo.com

Tuning:Drop D
(extra spaces used to show note)

~ Let ring!!!

Riff 1
G|-------------------------------------------------------------------------|
D|-------------------------------------------------------------------------|
A|------------------------------------------------------------3--3-3-------|
D|-5h7-7-7-5h7--5h7--5h7-7-5h7-7-7-5h7--5h7--5h7-7-3--3-3--0~--------5-6~--|

Riff 2
G|-------------------------------------------------------------------------|
D|-------------------------------------------------------------------------|
A|---------------5h7-x-3h5p3p0---------------------------------------------|
D|-5h7-7-7-5h7-------------------------------------------------------------|

Riff 3
G|-------------------------------------------------------------------------|
D|-------------------------------------------------------------------------|
A|---------------3h5-------/7--5-------------------------------------------|
D|-3--3--3--3h5-------0-----------5----------------------------------------|

Riff 4  
G|-------------------------------------------------------------------------|
D|-------------------------------------------------------------------------|
A|--------0~~~----------0~~~-----------------------------------------------|
D|-3~~~----------3~~~----------3~~~--5~~~--0~---0----12\-------------------|

Riff 5 (after this little guitar solo thing at 3:02)
G|-------------------------------------------------------------------------|
D|-------------------------------------------------------------------------|
A|-------------------------------------------------------------------------|
D|-3---3--3-3-3------------------------------------------------------------|

Riff 1 x2
Riff 2 x4
Riff 3 x1
Riff 2 x2
Riff 3 x1
Riff 4 x1
Riff 2 x2
Riff 3 x1
Riff 2 x2
Riff 3 x1 
Riff 2 x2
Riff 3 x1 
Riff 2 x2
Riff 3 x1 
Riff 4 x1
Riff 1 x2
(Guitar Solo Rest)
Riff 5 x1
(guitar solo thing rest again)
Riff 5 x1
(yup, you guessed it another little guitar thing rest again)
Riff 4 x1
The end.




| /  slide up
| \  slide down
| h  hammer-on
| p  pull-off
| ~  Let Ring
| +  harmonic
| x  Mute note
============================================================================

            
            
Suggest correction
Creating personal tab
Creating personal tab
You can edit any tab online and save it as your Personal.

You can edit, replace or remove any tab part or add personal notes – all changes will be seen only by you.

Personal tabs can be accessed anytime from any device, even offline.
Learn more »
Give kudos to tab author, rate the tab!
1 2 3 4 5
comments
print report bad tab
1 comment total.
0 reply
FLiP_HeRo93 10 Jan 28, 2008 11:08 AM

Wow I was looking for this tab for a while... Post more Godhead.

guest
You may want to rate the tab now too:
select rating
Wanna post a correction for this tab? Suggest correction