Oops, an error
Loading. Please wait.

Enemy tab

version 2
version 2

Whole song

Interactive

2,015 views 3 this week
no commentswrite comment
1 2 3 4 5
2 more votes to show rating
add to favorites
×
Save as Personal and add changes to this tab that will be seen only by you. Learn more ›
×
You can save this tab as Personal to edit and correct it or add notes. All changes will be seen only by you. Learn more »
launch autoscroll
font size
0
reset
how to read this tab
guitar tuner
edit
Autoscroll
slow
fast
+/-
esc
set tempo
stop
Author
Difficulty
-------------------------------------------------------------------------------
                             THE ENEMY - Godsmack
-------------------------------------------------------------------------------
Tabbed by: Scott Moreira
Email: scottymo87@hotmail.com

Tuning: DADGBe

INTRO
Guitar 1
e|-------------------------------------------------------------------------|
B|-------------------------------------------------------------------------|
G|-------------------------------------------------------------------------|
D|0-0-0--0-0-0-0--0--0-0-0-0-0-0-0-0--0-0-0-0--0--0-0-0-0-0----------------|
A|0-0-0--0-0-0-0--0--0-0-0-0-0-0-0-0--0-0-0-0--0--0-0-0-0-0----------------|
E|0-0-0--0-0-0-0--0--0-0-0-0-0-0-0-0--0-0-0-0--0--0-0-0-0-0----------------|
  . . .  . . . .  .  . . . . . . . .  . . . .  .  . . . . .

e|-------------------------------------------------------------------------|
B|-------------------------------------------------------------------------|
G|-------------------------------------------------------------------------|
D|0-0-0-0-0-0-0-0-0-0-0-0-0-0-0-0-0-0-0-0-0-0-0-0-0-0-0-0-0-0-0-0----------|
A|0-0-0-0-0-0-0-0-0-0-0-0-0-0-0-0-0-0-0-0-0-0-0-0-0-0-0-0-0-0-0-0----------|
E|0-0-0-0-0-0-0-0-0-0-0-0-0-0-0-0-0-0-0-0-0-0-0-0-0-0-0-0-0-0-0-0----------|
  . . . . . . . . . . . . . . . . . . . . . . . . . . . . . . . .

Guitar 2 (4x)
e|-------------------------------------------------------------------------|
B|-------------------------------------------------------------------------|
G|8\7-7--8\7-7--8\7--------------------------------------------------------|
D|x-x-x--x-x-x--x-x--------------------------------------------------------|
A|6\5-5--6\5-5--6\5--------------------------------------------------------|
E|-------------------------------------------------------------------------|

VERSE (2x)
e|-------------------------------------------------------------------------|
B|-------------------------------------------------------------------------|
G|-------------------------------------------------------------------------|
D|0-0-0--0-0-0-0--0--0-0-0-0-0-0-0-0--0-0-0-0--0--0-0-6-6-6----------------|
A|0-0-0--0-0-0-0--0--0-0-0-0-0-0-0-0--0-0-0-0--0--0-0-6-6-6----------------|
E|0-0-0--0-0-0-0--0--0-0-0-0-0-0-0-0--0-0-0-0--0--0-0-6-6-6----------------|

e|-------------------------------------------------------------------------|
B|-------------------------------------------------------------------------|
G|-------------------------------------------------------------------------|
D|0-0-0--0-0-0-0--0--0-0-0-0-0-0-0-0--0-0-0-0--3-3-3-3-3-3-3-3-------------|
A|0-0-0--0-0-0-0--0--0-0-0-0-0-0-0-0--0-0-0-0--3-3-3-3-3-3-3-3-------------|
E|0-0-0--0-0-0-0--0--0-0-0-0-0-0-0-0--0-0-0-0--3-3-3-3-3-3-3-3-------------|

CHORUS
e|-------------------------------------------------------------------------|
B|3-3--3-3-3-3-3-3--3-3-3-3------------------------------------------------|
G|2-2--2-2-2-2-2-2--2-2-2-2--5-5--5-5-5-5--8-8-8-8-8-8-8-------------------|
D|0-0--0-0-0-0-0-0--0-0-0-0--5-5--5-5-5-5--8-8-8-8-8-8-8-------------------|
A|0-0--0-0-0-0-0-0--0-0-0-0--3-3--3-3-3-3--6-6-6-6-6-6-6-------------------|
E|0-0--0-0-0-0-0-0--0-0-0-0------------------------------------------------|

e|-------------------------------------------------------------------------|
B|3-3--3-3-3-3-3-3--3-3-3-3------------------------------------------------|
G|2-2--2-2-2-2-2-2--2-2-2-2--5-5--5-5-5-5----------------------------------|
D|0-0--0-0-0-0-0-0--0-0-0-0--5-5--5-5-5-5--6-6-6-6-6-6-6-------------------|
A|0-0--0-0-0-0-0-0--0-0-0-0--3-3--3-3-3-3--6-6-6-6-6-6-6-------------------|
E|0-0--0-0-0-0-0-0--0-0-0-0----------------6-6-6-6-6-6-6-------------------|

e|-------------------------------------------------------------------------|
B|3-3--3-3-3-3-3-3--3-3-3-3------------------------------------------------|
G|2-2--2-2-2-2-2-2--2-2-2-2--5-5--5-5-5-5--8-8-8-8-8-8-8-------------------|
D|0-0--0-0-0-0-0-0--0-0-0-0--5-5--5-5-5-5--8-8-8-8-8-8-8-------------------|
A|0-0--0-0-0-0-0-0--0-0-0-0--3-3--3-3-3-3--6-6-6-6-6-6-6-------------------|
E|0-0--0-0-0-0-0-0--0-0-0-0------------------------------------------------|

e|-------------------------------------------------------------------------|
B|3-3--3-3-3-3-3-3--3-3-3-3------------------------------------------------|
G|2-2--2-2-2-2-2-2--2-2-2-2----5----5--------------------------------------|
D|0-0--0-0-0-0-0-0--0-0-0-0----5----5----6--6-6-6-6-6-6-6------------------|
A|0-0--0-0-0-0-0-0--0-0-0-0----3----3----6--6-6-6-6-6-6-6------------------|
E|0-0--0-0-0-0-0-0--0-0-0-0--0----0----0-6--6-6-6-6-6-6-6------------------|

RIFF 1
e|-------------------------------------------------------------------------|
B|-------------------------------------------------------------------------|
G|-------------------------------------------------------------------------|
D|0-0-0--0-0-0-0--0--0-0-0-0-0-0-0-0--0-0-0-0--0--0-0-6-6-6----------------|
A|0-0-0--0-0-0-0--0--0-0-0-0-0-0-0-0--0-0-0-0--0--0-0-6-6-6----------------|
E|0-0-0--0-0-0-0--0--0-0-0-0-0-0-0-0--0-0-0-0--0--0-0-6-6-6----------------|

e|-------------------------------------------------------------------------|
B|-------------------------------------------------------------------------|
G|-------------------------------------------------------------------------|
D|0-0-0--0-0-0-0--0--0-0-0-0-0---------------------------------------------|
A|0-0-0--0-0-0-0--0--0-0-0-0-0---------------------------------------------|
E|0-0-0--0-0-0-0--0--0-0-0-0-0--0-7-8-0-5-7-0-3-5-0-2-3-0-1-1-1-1-(w/ wah)-|

VERSE (2x)
e|-------------------------------------------------------------------------|
B|-------------------------------------------------------------------------|
G|-------------------------------------------------------------------------|
D|0-0-0--0-0-0-0--0--0-0-0-0-0-0-0-0--0-0-0-0--0--0-0-6-6-6----------------|
A|0-0-0--0-0-0-0--0--0-0-0-0-0-0-0-0--0-0-0-0--0--0-0-6-6-6----------------|
E|0-0-0--0-0-0-0--0--0-0-0-0-0-0-0-0--0-0-0-0--0--0-0-6-6-6----------------|

e|-------------------------------------------------------------------------|
B|-------------------------------------------------------------------------|
G|-------------------------------------------------------------------------|
D|0-0-0--0-0-0-0--0--0-0-0-0-0-0-0-0--0-0-0-0--3-3-3-3-3-3-3-3-------------|
A|0-0-0--0-0-0-0--0--0-0-0-0-0-0-0-0--0-0-0-0--3-3-3-3-3-3-3-3-------------|
E|0-0-0--0-0-0-0--0--0-0-0-0-0-0-0-0--0-0-0-0--3-3-3-3-3-3-3-3-------------|

CHORUS
e|-------------------------------------------------------------------------|
B|3-3--3-3-3-3-3-3--3-3-3-3------------------------------------------------|
G|2-2--2-2-2-2-2-2--2-2-2-2--5-5--5-5-5-5--8-8-8-8-8-8-8-------------------|
D|0-0--0-0-0-0-0-0--0-0-0-0--5-5--5-5-5-5--8-8-8-8-8-8-8-------------------|
A|0-0--0-0-0-0-0-0--0-0-0-0--3-3--3-3-3-3--6-6-6-6-6-6-6-------------------|
E|0-0--0-0-0-0-0-0--0-0-0-0------------------------------------------------|

e|-------------------------------------------------------------------------|
B|3-3--3-3-3-3-3-3--3-3-3-3------------------------------------------------|
G|2-2--2-2-2-2-2-2--2-2-2-2--5-5--5-5-5-5----------------------------------|
D|0-0--0-0-0-0-0-0--0-0-0-0--5-5--5-5-5-5--6-6-6-6-6-6-6-------------------|
A|0-0--0-0-0-0-0-0--0-0-0-0--3-3--3-3-3-3--6-6-6-6-6-6-6-------------------|
E|0-0--0-0-0-0-0-0--0-0-0-0----------------6-6-6-6-6-6-6-------------------|

e|-------------------------------------------------------------------------|
B|3-3--3-3-3-3-3-3--3-3-3-3------------------------------------------------|
G|2-2--2-2-2-2-2-2--2-2-2-2--5-5--5-5-5-5--8-8-8-8-8-8-8-------------------|
D|0-0--0-0-0-0-0-0--0-0-0-0--5-5--5-5-5-5--8-8-8-8-8-8-8-------------------|
A|0-0--0-0-0-0-0-0--0-0-0-0--3-3--3-3-3-3--6-6-6-6-6-6-6-------------------|
E|0-0--0-0-0-0-0-0--0-0-0-0------------------------------------------------|

e|-------------------------------------------------------------------------|
B|3-3--3-3-3-3-3-3--3-3-3-3------------------------------------------------|
G|2-2--2-2-2-2-2-2--2-2-2-2----5----5--------------------------------------|
D|0-0--0-0-0-0-0-0--0-0-0-0----5----5----6--6-6-6-6-6-6-6------------------|
A|0-0--0-0-0-0-0-0--0-0-0-0----3----3----6--6-6-6-6-6-6-6------------------|
E|0-0--0-0-0-0-0-0--0-0-0-0--0----0----0-6--6-6-6-6-6-6-6------------------|

BRIDGE
Guitar 1
e|-------------------------------------------------------------------------|
B|-------------------------------------------------------------------------|
G|-------------------------------------------------------------------------|
D|0-0-0--0-0-0-0--0--0-0-0-0-0-0-0-0--0-0-0-0--0--0-0-0-0-0----------------|
A|0-0-0--0-0-0-0--0--0-0-0-0-0-0-0-0--0-0-0-0--0--0-0-0-0-0----------------|
E|0-0-0--0-0-0-0--0--0-0-0-0-0-0-0-0--0-0-0-0--0--0-0-0-0-0----------------|
  . . .  . . . .  .  . . . . . . . .  . . . .  .  . . . . .

e|-------------------------------------------------------------------------|
B|-------------------------------------------------------------------------|
G|-------------------------------------------------------------------------|
D|0-0-0-0-0-0-0-0-0-0-0-0-0-0-0-0-0-0-0-0-0-0-0-0-0-0-0-0-0-0-0-0----------|
A|0-0-0-0-0-0-0-0-0-0-0-0-0-0-0-0-0-0-0-0-0-0-0-0-0-0-0-0-0-0-0-0----------|
E|0-0-0-0-0-0-0-0-0-0-0-0-0-0-0-0-0-0-0-0-0-0-0-0-0-0-0-0-0-0-0-0----------|
  . . . . . . . . . . . . . . . . . . . . . . . . . . . . . . . .

Guitar 2 (4x)
e|-------------------------------------------------------------------------|
B|-------------------------------------------------------------------------|
G|8\7-7--8\7-7--8\7--------------------------------------------------------|
D|x-x-x--x-x-x--x-x--------------------------------------------------------|
A|6\5-5--6\5-5--6\5--------------------------------------------------------|
E|-------------------------------------------------------------------------|

RIFF 2 (4x)
e|-------------------------------------------------------------------------|
B|-------------------------------------------------------------------------|
G|-------------------------------------------------------------------------|
D|-------------------------------------------------------------------------|
A|-------------------------------------------------------------------------|
E|13-12-0-0-13-12-0-0-18-17-17-0-13-12-0-0-13-12-0-0-10-10-10-10-----------|

RIFF 3 (4x)
e|-------------------------------------------------------------------------|
B|-------------------------------------------------------------------------|
G|-------------------------------------------------------------------------|
D|-------------------------------------------------------------------------|
A|000-0-0-1p0-0-0-0-1p0-0-1p0-0-0-000-0-0-1p0-0-0-0-1p0-0-1p0-1h3----------|
E|000-0-0-1p0-0-0-0-1p0-0-1p0-0-0-000-0-0-1p0-0-0-0-1p0-0-1p0-1h3----------|

RIFF 2 (4x)
e|-------------------------------------------------------------------------|
B|-------------------------------------------------------------------------|
G|-------------------------------------------------------------------------|
D|-------------------------------------------------------------------------|
A|-------------------------------------------------------------------------|
E|13-12-0-0-13-12-0-0-18-17-17-0-13-12-0-0-13-12-0-0-10-10-10-10-----------|

RIFF 4
e|-------------------------------------------------------------------------|
B|-------------------------------------------------------------------------|
G|-------------------------------------------------------------------------|
D|6-6-6-6-6-6-6-6-6-6-6-6-6-6-6-6------------------------------------------|
A|6-6-6-6-6-6-6-6-6-6-6-6-6-6-6-6------------------------------------------|
E|6-6-6-6-6-6-6-6-6-6-6-6-6-6-6-6------------------------------------------|
  . . . . . . . . . . . . . . . . (gradually increasing)

CHORUS
e|-------------------------------------------------------------------------|
B|3-3--3-3-3-3-3-3--3-3-3-3------------------------------------------------|
G|2-2--2-2-2-2-2-2--2-2-2-2--5-5--5-5-5-5--8-8-8-8-8-8-8-------------------|
D|0-0--0-0-0-0-0-0--0-0-0-0--5-5--5-5-5-5--8-8-8-8-8-8-8-------------------|
A|0-0--0-0-0-0-0-0--0-0-0-0--3-3--3-3-3-3--6-6-6-6-6-6-6-------------------|
E|0-0--0-0-0-0-0-0--0-0-0-0------------------------------------------------|

e|-------------------------------------------------------------------------|
B|3-3--3-3-3-3-3-3--3-3-3-3------------------------------------------------|
G|2-2--2-2-2-2-2-2--2-2-2-2--5-5--5-5-5-5----------------------------------|
D|0-0--0-0-0-0-0-0--0-0-0-0--5-5--5-5-5-5--6-6-6-6-6-6-6-------------------|
A|0-0--0-0-0-0-0-0--0-0-0-0--3-3--3-3-3-3--6-6-6-6-6-6-6-------------------|
E|0-0--0-0-0-0-0-0--0-0-0-0----------------6-6-6-6-6-6-6-------------------|

e|-------------------------------------------------------------------------|
B|3-3--3-3-3-3-3-3--3-3-3-3------------------------------------------------|
G|2-2--2-2-2-2-2-2--2-2-2-2--5-5--5-5-5-5--8-8-8-8-8-8-8-------------------|
D|0-0--0-0-0-0-0-0--0-0-0-0--5-5--5-5-5-5--8-8-8-8-8-8-8-------------------|
A|0-0--0-0-0-0-0-0--0-0-0-0--3-3--3-3-3-3--6-6-6-6-6-6-6-------------------|
E|0-0--0-0-0-0-0-0--0-0-0-0------------------------------------------------|

e|-------------------------------------------------------------------------|
B|3-3--3-3-3-3-3-3--3-3-3-3------------------------------------------------|
G|2-2--2-2-2-2-2-2--2-2-2-2----5----5--------------------------------------|
D|0-0--0-0-0-0-0-0--0-0-0-0----5----5----6--6-6-6-6-6-6-6------------------|
A|0-0--0-0-0-0-0-0--0-0-0-0----3----3----6--6-6-6-6-6-6-6------------------|
E|0-0--0-0-0-0-0-0--0-0-0-0--0----0----0-6--6-6-6-6-6-6-6------------------|

OUTRO
e|-------------------------------------------------------------------------|
B|-------------------------------------------------------------------------|
G|-------------------------------------------------------------------------|
D|0-0-0--0-0-0-0--0--0-0-0-0-0-0-0-0--0-0-0-0--0--0-0-0-0-0----------------|
A|0-0-0--0-0-0-0--0--0-0-0-0-0-0-0-0--0-0-0-0--0--0-0-0-0-0----------------|
E|0-0-0--0-0-0-0--0--0-0-0-0-0-0-0-0--0-0-0-0--0--0-0-0-0-0----------------|

e|-------------------------------------------------------------------------|
B|-------------------------------------------------------------------------|
G|-------------------------------------------------------------------------|
D|0-0-0--0-0-0-0--0--0-0-0-0-0-0-0-0--0-0-0-0------------------------------|
A|0-0-0--0-0-0-0--0--0-0-0-0-0-0-0-0--0-0-0-0------------------------------|
E|0-0-0--0-0-0-0--0--0-0-0-0-0-0-0-0--0-0-0-0------------------------------|



| /  slide up
| \  slide down
| h  hammer-on
| p  pull-off
| .  palm mute
| +  harmonic
| x  Mute note
===============================================================================

            
            
Suggest correction
Creating personal tab
Creating personal tab
You can edit any tab online and save it as your Personal.

You can edit, replace or remove any tab part or add personal notes – all changes will be seen only by you.

Personal tabs can be accessed anytime from any device, even offline.
Learn more »
Give kudos to tab author, rate the tab!
1 2 3 4 5
comments
print report bad tab
guest
You may want to rate the tab now too:
select rating
Wanna post a correction for this tab? Suggest correction