Oops, an error
Loading. Please wait.

Enemy tab

version 4
version 4

Whole song

Interactive

12,550 views 1 this week
14 commentsread comments
1 2 3 4 5
x 17
add to favorites
×
Save as Personal and add changes to this tab that will be seen only by you. Learn more ›
×
You can save this tab as Personal to edit and correct it or add notes. All changes will be seen only by you. Learn more »
launch autoscroll
font size
0
reset
how to read this tab
guitar tuner
edit
Autoscroll
slow
fast
+/-
esc
set tempo
stop
the enemy (low to high) DADGBE
                               *=palm mute   /=slide up
                               T=trem pick   \=slide down
intro (dist)                   p=pull off
------------------------------------------------------------|
------------------------------------------------------------|
------------------------------------------------------------|
------------------------------------------------------------|
-0-0-0--0-0-0-0--0--0-0-0-0-0--0-0-0--0-0-0-0--0--0-0-0-0-0-|
-0-0-0--0-0-0-0--0--0-0-0-0-0--0-0-0--0-0-0-0--0--0-0-0-0-0-|
 * * *  * * * *  *  * * * * *  * * *  * * * *  *  * * * * *

intro 2 w/wah-wah
--------------------------------------------------------------------------------------------------|
--------------------------------------------------------------------------------------------------|
-8-\-7-7--8-\-7-7--8-\-7--8-\-7-7--8-\-7-7--8-\-7--8-\-7-7--8-\-7-7--8-\-7--8-\-7-7--8-\-7-7------|
-x-----x--x-----x--x------x-----x--x-----x--x------x-----x--x-----x--x------x-----x--x-----x------|
-6-\-5-5--6-\-5-5--6-\-5--6-\-5-5--6-\-5-5--6-\-5--6-\-5-5--6-\-5-5--6-\-5--6-\-5-5--6-\-5-5------|
---------------------------------------------------------------------------------------------/12\-|
                                                                                         
   wah off

verse (dist)
--------------------------------------------------------------|
--------------------------------------------------------------|
--------------------------------------------------------------|
--------------------------------------------------------------|
-0-0-0--0-0-0-0--0--0-0-0-0-0--0-0-0--0-0-0-0--0--0-0--6-6--6-|
-0-0-0--0-0-0-0--0--0-0-0-0-0--0-0-0--0-0-0-0--0--0-0--6-6--6-|

verse cont (dist)
---------------------------------------------------------------|
---------------------------------------------------------------|
---------------------------------------------------------------|
---------------------------------------------------------------|
-0-0-0--0-0-0-0--0--0-0-0-0-0--0-0-0--0-0-0-0--0-3-3-3-3-3-3-3-|
-0-0-0--0-0-0-0--0--0-0-0-0-0--0-0-0--0-0-0-0--0-3-3-3-3-3-3-3-|

verse cont (dist)
--------------------------------------------------------------|
--------------------------------------------------------------|
--------------------------------------------------------------|
--------------------------------------------------------------|
-0-0-0--0-0-0-0--0--0-0-0-0-0--0-0-0--0-0-0-0--0--0-0--6-6--6-|
-0-0-0--0-0-0-0--0--0-0-0-0-0--0-0-0--0-0-0-0--0--0-0--6-6--6-|

verse cont> (dist)
---------------------------------------------------------------|
---------------------------------------------------------------|
---------------------------------------------------------------|
---------------------------------------------------------------|
-0-0-0--0-0-0-0--0--0-0-0-0-0--0-0-0--0-0-0-0--0-3-3-3-3-3-3-3-|
-0-0-0--0-0-0-0--0--0-0-0-0-0--0-0-0--0-0-0-0--0-3-3-3-3-3-3-3-|

chorus (dist)
----------------------------------------------------|
---3-3-3-3-3-3-3------------------------------------|
---2-2-2-2-2-2-2------------------------------------|
---0-0-0-0-0-0-0-5-5-5-5-5-5-/-10-10-10-10-10-10-10-|
-0-0-0-0-0-0-0-0-3-3-3-3-3-3-/--8--8--8--8--8--8--8-|
-0-0-0-0-0-0-0-0------------------------------------|

chorus cont. (dist)
-------------------------------------------|
---3-3-3-3-3-3-3---------------------------|
---2-2-2-2-2-2-2---------------------------|
---0-0-0-0-0-0-0-5-5-5-5-5-5-3-3-3-3-2-2-2-|
-0-0-0-0-0-0-0-0-3-3-3-3-3-3-1-1-1-1-0-0-0-|
-0-0-0-0-0-0-0-0---------------------------|

chorus cont. (dist)
----------------------------------------------------|
---3-3-3-3-3-3-3------------------------------------|
---2-2-2-2-2-2-2------------------------------------|
---0-0-0-0-0-0-0-5-5-5-5-5-5-/-10-10-10-10-10-10-10-|
-0-0-0-0-0-0-0-0-3-3-3-3-3-3-/--8--8--8--8--8--8--8-|
-0-0-0-0-0-0-0-0------------------------------------|

chorus cont. (dist)
---------------------------------------------|
---3-3-3-3-3-3-3-----------------------------|
---2-2-2-2-2-2-2-----------------------------|
---0-0-0-0-0-0-0----5---5---3--3-3-3-3-2-2-2-|
-0-0-0-0-0-0-0-0----3---3---1--1-1-1-1-0-0-0-|
-0-0-0-0-0-0-0-0--0---0---0------------------|
                  *   *   *

interlude (dist)
------------------------------------------------------------|
------------------------------------------------------------|
------------------------------------------------------------|
------------------------------------------------------------|
-0-0-0--0-0-0-0--0--0-0-0-0-0--0-0-0--0-0-0-0--0--0-0-6-6-6-|
-0-0-0--0-0-0-0--0--0-0-0-0-0--0-0-0--0-0-0-0--0--0-0-6-6-6-|

interlude cont (dist)             w/wah-wah
---------------------------------|---------------------------------|
---------------------------------|---------------------------------|
---------------------------------|---------------------------------|
---------------------------------|---------------------------------|
-0-0-0--0-0-0-0--0--0-0-0--------|-0-7-8-0-5-7-0-3-5-0-2-3-0-1-1-1-|
-0-0-0--0-0-0-0--0--0-0-0-/-10-\-|-0-7-8-0-5-7-0-3-5-0-2-3-0-1-1-1-|

verse (dist)
--------------------------------------------------------------|
--------------------------------------------------------------|
--------------------------------------------------------------|
--------------------------------------------------------------|
-0-0-0--0-0-0-0--0--0-0-0-0-0--0-0-0--0-0-0-0--0--0-0--6-6--6-|
-0-0-0--0-0-0-0--0--0-0-0-0-0--0-0-0--0-0-0-0--0--0-0--6-6--6-|

verse cont (dist)
---------------------------------------------------------------|
---------------------------------------------------------------|
---------------------------------------------------------------|
---------------------------------------------------------------|
-0-0-0--0-0-0-0--0--0-0-0-0-0--0-0-0--0-0-0-0--0-3-3-3-3-3-3-3-|
-0-0-0--0-0-0-0--0--0-0-0-0-0--0-0-0--0-0-0-0--0-3-3-3-3-3-3-3-|

verse cont (dist)
--------------------------------------------------------------|
--------------------------------------------------------------|
--------------------------------------------------------------|
--------------------------------------------------------------|
-0-0-0--0-0-0-0--0--0-0-0-0-0--0-0-0--0-0-0-0--0--0-0--6-6--6-|
-0-0-0--0-0-0-0--0--0-0-0-0-0--0-0-0--0-0-0-0--0--0-0--6-6--6-|

verse cont (dist)
---------------------------------------------------------------|
---------------------------------------------------------------|
---------------------------------------------------------------|
---------------------------------------------------------------|
-0-0-0--0-0-0-0--0--0-0-0-0-0--0-0-0--0-0-0-0--0-3-3-3-3-3-3-3-|
-0-0-0--0-0-0-0--0--0-0-0-0-0--0-0-0--0-0-0-0--0-3-3-3-3-3-3-3-|

chorus (dist)
----------------------------------------------------|
---3-3-3-3-3-3-3------------------------------------|
---2-2-2-2-2-2-2------------------------------------|
---0-0-0-0-0-0-0-5-5-5-5-5-5-/-10-10-10-10-10-10-10-|
-0-0-0-0-0-0-0-0-3-3-3-3-3-3-/--8--8--8--8--8--8--8-|
-0-0-0-0-0-0-0-0------------------------------------|

chorus cont (dist)
-------------------------------------------|
---3-3-3-3-3-3-3---------------------------|
---2-2-2-2-2-2-2---------------------------|
---0-0-0-0-0-0-0-5-5-5-5-5-5-3-3-3-3-2-2-2-|
-0-0-0-0-0-0-0-0-3-3-3-3-3-3-1-1-1-1-0-0-0-|
-0-0-0-0-0-0-0-0---------------------------|

chorus cont (dist)
----------------------------------------------------|
---3-3-3-3-3-3-3------------------------------------|
---2-2-2-2-2-2-2------------------------------------|
---0-0-0-0-0-0-0-5-5-5-5-5-5-/-10-10-10-10-10-10-10-|
-0-0-0-0-0-0-0-0-3-3-3-3-3-3-/--8--8--8--8--8--8--8-|
-0-0-0-0-0-0-0-0------------------------------------|

chorus cont (dist)
---------------------------------------------|
---3-3-3-3-3-3-3-----------------------------|
---2-2-2-2-2-2-2-----------------------------|
---0-0-0-0-0-0-0----5---5---3--3-3-3-3-2-2-2-|
-0-0-0-0-0-0-0-0----3---3---1--1-1-1-1-0-0-0-|
-0-0-0-0-0-0-0-0--0---0---0------------------|
                  *   *   *

intro (dist)
------------------------------------------------------------|
------------------------------------------------------------|
------------------------------------------------------------|
------------------------------------------------------------|
-0-0-0--0-0-0-0--0--0-0-0-0-0--0-0-0--0-0-0-0--0--0-0-0-0-0-|
-0-0-0--0-0-0-0--0--0-0-0-0-0--0-0-0--0-0-0-0--0--0-0-0-0-0-|
 * * *  * * * *  *  * * * * *  * * *  * * * *  *  * * * * *

intro 2 w/wah-wah 4x           wah off
----------------|-------------|--------|
----------------|-------------|--------|
-8-\-7-7-8-\-7-7|-8-\-7-------|--------|
-x-----x-x-----x|-x-----------|--------|
-6-\-5-5-6-\-5-5|-6-\-5-------|--------|
----------------|-------------|-/-12-\-|
                 4th time dont|play this instead
                 play this    |

interlude 2 (dist)
------------------------------------------------------------|
------------------------------------------------------------|
-8-\-7-----8-\-7-----13-\-12-12---8-\-7-----8-\-7-----5-5---|
-x---------x----------x-------x---x---------x---------x-x---|
-6-\-5-----6-\-5-----11-\-10-10---6-\-5-----6-\-5-----3-3---|
-------0-0-------0-0------------0-------0-0-------0-0-----0-|

interlude 2 cont (dist)
------------------------------------------------------------|
------------------------------------------------------------|
-8-\-7-----8-\-7-----13-\-12-12---8-\-7-----8-\-7-----5-5---|
-x---------x----------x-------x---x---------x---------x-x---|
-6-\-5-----6-\-5-----11-\-10-10---6-\-5-----6-\-5-----3-3---|
-------0-0-------0-0------------0-------0-0-------0-0-----0-|


interlude 3 (dist)
-----------------------------------|
-----------------------------------|
-7-7-7-8-8-10-10-8-7-7-\-2-2-5-5-5-|
-0-0-0-0-0--0--0-0-0-0---0-0-0-0-0-|
-----------------------------------|
-----------------------------------|
 T T T T T  T  T T T T   T T T T T

bridge (dist)
-----------------------------------------------------------------|
-----------------------------------------------------------------|
-----------------------------------------------------------------|
-----------------------------------------------------------------|
-0-0-0-0-1p0-0-0-0-1p0-0-1p0-0-0-0-0-0-0-0-1p0-0-0-0-1p0-0-1p0-3-|
-0-0-0-0-1p0-0-0-0-1p0-0-1p0-0-0-0-0-0-0-0-1p0-0-0-0-1p0-0-1p0-3-|
 * * * *     * * *     *     * * * * * * *     * * *     *

bridge 2 (dist)
-------------------------------------------------------------------|
-------------------------------------------------------------------|
-------------------------------------------------------------------|
-------------------------------------------------------------------|
-0-0-0-0-0-1p0-0-0-0-1p0-0-1p0-0-0-0-0-0-0-0-1p0-0-0-0-1p0-0-1p0-3-|
-0-0-0-0-0-1p0-0-0-0-1p0-0-1p0-0-0-0-0-0-0-0-1p0-0-0-0-1p0-0-1p0-3-|
 * * * * *     * * *     *     * * * * * * *     * * *     *

bridge 2 cont (dist)
-------------------------------------------------------------------|
-------------------------------------------------------------------|
-------------------------------------------------------------------|
-------------------------------------------------------------------|
-0-0-0-0-0-1p0-0-0-0-1p0-0-1p0-0-0-0-0-0-0-0-1p0-0-0-0-1p0-0-1p0-3-|
-0-0-0-0-0-1p0-0-0-0-1p0-0-1p0-0-0-0-0-0-0-0-1p0-0-0-0-1p0-0-1p0-3-|
 * * * * *     * * *     *     * * * * * * *     * * *     *

bridge 2 cont (dist)
-------------------------------------------------------------------|
-------------------------------------------------------------------|
-------------------------------------------------------------------|
-------------------------------------------------------------------|
-0-0-0-0-0-1p0-0-0-0-1p0-0-1p0-0-0-0-0-0-0-0-1p0-0-0-0-1p0-0-1p0-3-|
-0-0-0-0-0-1p0-0-0-0-1p0-0-1p0-0-0-0-0-0-0-0-1p0-0-0-0-1p0-0-1p0-3-|
 * * * * *     * * *     *     * * * * * * *     * * *     *

interlude 2 (dist)
------------------------------------------------------------|
------------------------------------------------------------|
-8-\-7-----8-\-7-----13-\-12-12---8-\-7-----8-\-7-----5-5---|
-x---------x----------x-------x---x---------x---------x-x---|
-6-\-5-----6-\-5-----11-\-10-10---6-\-5-----6-\-5-----3-3---|
-------0-0-------0-0------------0-------0-0-------0-0-----0-|

interlude 2 cont (dist)
------------------------------------------------------------|
------------------------------------------------------------|
-8-\-7-----8-\-7-----13-\-12-12---8-\-7-----8-\-7-----5-5---|
-x---------x----------x-------x---x---------x---------x-x---|
-6-\-5-----6-\-5-----11-\-10-10---6-\-5-----6-\-5-----3-3---|
-------0-0-------0-0------------0-------0-0-------0-0-----0-|


interlude 4 (dist)
-(12)-(12)-\-|-----------------------------|
-------------|-----------------------------|
-------------|-7-7-7-8-8-10-10-11-11-11-11-|
-------------|-0-0-0-0-0--0--0--0--0--0--0-|
-------------|-----------------------------|
-------------|-----------------------------|
feedback       T T T T T  T  T  T  T  T  T

fill in
------|---------------------------------|
------|---------------------------------|
------|---------------------------------|
------|---------------------------------|
------|-6-6-6-6-6-6-6-6-6-6-6-6-6-6-6-6-|
------|-6-6-6-6-6-6-6-6-6-6-6-6-6-6-6-6-|
-0----|-6-6-6-6-6-6-6-6-6-6-6-6-6-6-6-6-|
W/bar | * * * * * * * * * * * * * * * *
        gradually lifr pm
chorus (dist)
----------------------------------------------------|
---3-3-3-3-3-3-3------------------------------------|
---2-2-2-2-2-2-2------------------------------------|
---0-0-0-0-0-0-0-5-5-5-5-5-5-/-10-10-10-10-10-10-10-|
-0-0-0-0-0-0-0-0-3-3-3-3-3-3-/--8--8--8--8--8--8--8-|
-0-0-0-0-0-0-0-0------------------------------------|

chorus cont. (dist)
-------------------------------------------|
---3-3-3-3-3-3-3---------------------------|
---2-2-2-2-2-2-2---------------------------|
---0-0-0-0-0-0-0-5-5-5-5-5-5-3-3-3-3-2-2-2-|
-0-0-0-0-0-0-0-0-3-3-3-3-3-3-1-1-1-1-0-0-0-|
-0-0-0-0-0-0-0-0---------------------------|

chorus cont. (dist)
----------------------------------------------------|
---3-3-3-3-3-3-3------------------------------------|
---2-2-2-2-2-2-2------------------------------------|
---0-0-0-0-0-0-0-5-5-5-5-5-5-/-10-10-10-10-10-10-10-|
-0-0-0-0-0-0-0-0-3-3-3-3-3-3-/--8--8--8--8--8--8--8-|
-0-0-0-0-0-0-0-0------------------------------------|

chorus cont. (dist)
---------------------------------------------|
---3-3-3-3-3-3-3-----------------------------|
---2-2-2-2-2-2-2-----------------------------|
---0-0-0-0-0-0-0----5---5---3--3-3-3-3-2-2-2-|
-0-0-0-0-0-0-0-0----3---3---1--1-1-1-1-0-0-0-|
-0-0-0-0-0-0-0-0--0---0---0------------------|
                  *   *   *
outro (dist)
------------------------------------------------------------|
------------------------------------------------------------|
------------------------------------------------------------|
------------------------------------------------------------|
-0-0-0--0-0-0-0--0--0-0-0-0-0--0-0-0--0-0-0-0--0--0-0-0-0-0-|
-0-0-0--0-0-0-0--0--0-0-0-0-0--0-0-0--0-0-0-0--0--0-0-0-0-0-|

outro cont (dist)
----------------------------------------------|
----------------------------------------------|
----------------------------------------------|
----------------------------------------------|
-0-0-0--0-0-0-0--0--0-0-0-0-0--0-0-0--0-0-0-0-|
-0-0-0--0-0-0-0--0--0-0-0-0-0--0-0-0--0-0-0-0-|

            
            
Suggest correction
Creating personal tab
Creating personal tab
You can edit any tab online and save it as your Personal.

You can edit, replace or remove any tab part or add personal notes – all changes will be seen only by you.

Personal tabs can be accessed anytime from any device, even offline.
Learn more »
comments
print report bad tab
14 comments total. Showing first comments.
0 reply
sonyashadron 10 Dec 30, 2006 06:51 PM

this should be five stars this is perfect at least 99.99% correct if anything you guys should try this tab and tell me that this is not perfect

0 reply
Neowolf 10 Jul 21, 2007 08:06 AM

Everything is perfect except for one little spot in the chorus. Instead of
---------------------------------
---------------------------------
---------------------------------
-----------------10-------------- ---8---
-----------------8--------------- it should be ---6----
---------------------------------

Other than that, perfect.

0 reply
Neowolf 10 Jul 21, 2007 08:06 AM

Kinda screwed my comment up, but you get the idea.

guest
You may want to rate the tab now too:
select rating
Wanna post a correction for this tab? Suggest correction