Oops, an error
Loading. Please wait.

Hollow tab

version 4
version 4

Whole song

Interactive

1,397 views 1 this week
no commentswrite comment
1 2 3 4 5
1 last vote to show rating
add to favorites
×
Save as Personal and add changes to this tab that will be seen only by you. Learn more ›
×
You can save this tab as Personal to edit and correct it or add notes. All changes will be seen only by you. Learn more »
launch autoscroll
font size
0
reset
how to read this tab
guitar tuner
edit
Autoscroll
slow
fast
+/-
esc
set tempo
stop
Author
Band Name: Godsmack
Song:Hollow - Album:IV (four)
Tabbed By: Robin "Doocman" Söderholm
Email: Bobbe@saleboda-fur.net

NOTE!: This is the first tab I have wrote, so the pace that this tab shows might not be 
right. Also note that I have lowered the song one half-note
This is my way of playing this song alone:


Verse:
e|--1----------------------------------------|
B|-----3--3----3--3----3--3----3--3--3--3--3-|
G|-----2--2----2--2----2--2----2--2--3--0--2-|
D|-------0-------0-------0-------0--0--0--0--|
A|-------0-------0-------0-------0--0--0--0--|
D|---------0-0-----0-0-----0-0---------------|

e|--1----------------------------------------|
B|-----3--3----3--3----3--3----3--3--3--3--3-|
G|-----2--2----2--2----2--2----2--2--3--0--2-|
D|-------0-------0-------0-------0--0--0--0--|
A|-------0-------0-------0-------0--0--0--0--|
D|---------0-0-----0-0-----0-0---------------|

e|--1----------------------------------------|
B|-----3--3----3--3----3--3----3--3--3--3--3-|Here you letting
G|-----2--2----2--2----2--2----2--2--3--0--3-|the last notes
D|-------0-------0-------0-------0--0--0--0--|continue sounding
A|-------0-------0-------0-------0--0--0--0--|
D|---------0-0-----0-0-----0-0---------------|

e|-------------------------------------------|
B|-----------------------------3--3--3--3--3-|
G|-----------------------------2--2--3--0--2-|
D|-------------------------------0--0--0--0--|
A|-------------------------------0--0--0--0--|
D|-------------------------------------------|

e|--1----------------------------------------|
B|-----3--3----3--3----3--3----3--3--3--3--3-|
G|-----2--2----2--2----2--2----2--2--3--0--2-|
D|-------0-------0-------0-------0--0--0--0--|
A|-------0-------0-------0-------0--0--0--0--|
D|---------0-0-----0-0-----0-0---------------|

e|--1----------------------------------------|
B|-----3--3----3--3----3--3----3--3--3--3--3-|
G|-----2--2----2--2----2--2----2--2--3--0--2-|
D|-------0-------0-------0-------0--0--0--0--|
A|-------0-------0-------0-------0--0--0--0--|
D|---------0-0-----0-0-----0-0---------------|

e|--1----------------------------------------|
B|-----3--3----3--3----3--3----3--3--3--3--3-|Here you letting
G|-----2--2----2--2----2--2----2--2--3--0--3-|the last notes
D|-------0-------0-------0-------0--0--0--0--|continue sounding
A|-------0-------0-------0-------0--0--0--0--|
D|---------0-0-----0-0-----0-0---------------|

e|-------------------------------------------|
B|-----------------------------3--3--3--3--3-|
G|-----------------------------2--2--3--0--2-|
D|-------------------------------0--0--0--0--|
A|-------------------------------0--0--0--0--|
D|-------------------------------------------|

Chorus1:
e|----------------------------------------------------------------|
B|---8-8--898---8----7----8---6------4-4--343---4----4----4---6---|
G|---7-7--7-7---7----8----7---5------3-3--3-3---3----3----3---5---|
D|-------5---------5---------------------1---------1--------------|
A|-------5---------5---------------------1---------1--------------|
D|-5-----------5--------5----3-----1-----------1--------1----3----|

e|----------------------------------------------------------------|
B|---8-8--898---8----7----8---6------4-4--343---4----4----4---6---|
G|---7-7--7-7---7----8----7---5------3-3--3-3---3----3----3---5---|
D|-------5---------5---------------------1---------1--------------|
A|-------5---------5---------------------1---------1--------------|
D|-5-----------5--------5----3-----1-----------1--------1----3----|

e|----------------------------------------------------------------|
B|--6----6---6---6--6---4--4---6--6---8---8--98-8-----------------|
G|--5----5---5---5--5---3--3---5--5---7---7--7--7-----------------|
D|--3----3---3---3--3---1--1---3--3---5---5--5--5-----------------|
A|--3----3---3---3--3---1--1---3--3---5---5--5--5-----------------|
D|--3----3---3---3--3---1--1---3--3---5---5--5--5-----------------|
Just play the verse one more time and then play Chorus2:
e|----------------------------------------------------------------|
B|---8-8--898---8----7----8---6------4-4--343---4----4----4---6---|
G|---7-7--7-7---7----8----7---5------3-3--3-3---3----3----3---5---|
D|-------5---------5---------------------1---------1--------------|
A|-------5---------5---------------------1---------1--------------|
D|-5-----------5--------5----3-----1-----------1--------1----3----|

e|----------------------------------------------------------------|
B|---8-8--898---8----7----8---6------4-4--343---4----4----4---6---|
G|---7-7--7-7---7----8----7---5------3-3--3-3---3----3----3---5---|
D|-------5---------5---------------------1---------1--------------|
A|-------5---------5---------------------1---------1--------------|
D|-5-----------5--------5----3-----1-----------1--------1----3----|

e|----------------------------------------------------------------|
B|---8-8--898---8----7----8---6------4-4--343---4----4----4---6---|
G|---7-7--7-7---7----8----7---5------3-3--3-3---3----3----3---5---|
D|-------5---------5---------------------1---------1--------------|
A|-------5---------5---------------------1---------1--------------|
D|-5-----------5--------5----3-----1-----------1--------1----3----|

e|----------------------------------------------------------------|
B|---8-8--898---8----7----8---6------4-4--343---4----4----4---6---|
G|---7-7--7-7---7----8----7---5------3-3--3-3---3----3----3---5---|
D|-------5---------5---------------------1---------1--------------|
A|-------5---------5---------------------1---------1--------------|
D|-5-----------5--------5----3-----1-----------1--------1----3----|

e|----------------------------------------------------------------|
B|---8-8--898---8----7----8---6------4-4--343---4----4----4---6---|
G|---7-7--7-7---7----8----7---5------3-3--3-3---3----3----3---5---|
D|-------5---------5---------------------1---------1--------------|
A|-------5---------5---------------------1---------1--------------|
D|-5-----------5--------5----3-----1-----------1--------1----3----|
Now play the verse thing but let the volume fade in one way or another

 Good Luck! //Robin "Doocman" Söderholm

            
            
Suggest correction
Creating personal tab
Creating personal tab
You can edit any tab online and save it as your Personal.

You can edit, replace or remove any tab part or add personal notes – all changes will be seen only by you.

Personal tabs can be accessed anytime from any device, even offline.
Learn more »
Give kudos to tab author, rate the tab!
1 2 3 4 5
comments
print report bad tab
guest
You may want to rate the tab now too:
select rating
Wanna post a correction for this tab? Suggest correction