Oops, an error
Loading. Please wait.

No Rest For The Wicked tab

version 2
version 2

Whole song

Interactive

1,480 views 1 this week
1 commentread comment
1 2 3 4 5
x 3
add to favorites
×
Save as Personal and add changes to this tab that will be seen only by you. Learn more ›
×
You can save this tab as Personal to edit and correct it or add notes. All changes will be seen only by you. Learn more »
launch autoscroll
font size
0
reset
how to read this tab
guitar tuner
edit
Autoscroll
slow
fast
+/-
esc
set tempo
stop
No Rest For The Wicked
------------------------


song-  No Rest For The Wicked
band-  Godsmack
year-  2006
album- Godsmack 4

tuning:

Drop C (C G C F A D)


Intro   gtrs 1 & 2


|-----------------------------------------|
|-----------------------------------------|
|-----------------------------------------|
|-----------------------------------------|
|---5--5-----------6-5-----5--5-5-3-------|
|0--------0--0-0-0------0------------6--5-|

|------------------------------------------------|
|------------------------------------------------|
|------------------------------------------------|
|----------------------------------0-0-3--0-0-5--|
|---5--5-----------6-5-----5--5-5--0-0-3--0-0-5--|
|0--------0--0-0-0------0----------0-0-3--0-0-5--|
                                   PM-|   PM-|

|------------------------------------------|        ---
|------------------------------------------|         |
|------------------------------------------|         |
|------------------------------------------|         |
|0--5--5--0--0-0-0--6-5--0--5--5-5-3-------|         |
|0--------0--0-0-0-------0------------6--5-|         2x
                                                     |
|-------------------------------------------------|  |
|-------------------------------------------------|  |
|-------------------------------------------------|  |
|-----------------------------------0-0-3--0-0-5--|  |
|0--5--5--0--0-0-0--6-5--0--5--5-5--0-0-3--0-0-5--|  |
|0--------0--0-0-0-------0----------0-0-3--0-0-5--| ---
                                    PM-|   PM-|


Verse 1

|-------------|------------------------------------------|
|-------------|------------------------------------------|
|-------------|------------------------------------------|
|0------------|------------------------------------------|
|0------------|0--5--5--0--0-0-0--6-5--0--5--5-5-3-------|
|0------------|0--------0--0-0-0-------0------------6--5-|

|-------------|------------------------------------------|
|-------------|------------------------------------------|
|-------------|------------------------------------------|
|0------------|-------------------------------------6--5-|
|0------------|0--5--5--0--0-0-0--6-5--0--5--5-5-3--6--5-|
|0------------|0--------0--0-0-0-------0------------6--5-|

|-----------------------|-----------------------------------------|
|-----------------------|-----------------------------------------|
|-----------------------|-----------------------------------------|
|5--5-5-5-5--3--3-3-3-3-|---7-7------------8-7-----7--7-7-5--6--5-|
|5--5-5-5-5--3--3-3-3-3-|0--5-5--0--0-0-0--6-5--0--5--5-5-3--6--5-|
|5--5-5-5-5--3--3-3-3-3-|0-------0--0-0-0-------0------------6--5-|

|-----------------------|
|-----------------------|
|-----------------------|
|3--3-3-3-3--5--5-5-5-5-|
|3--3-3-3-3--5--5-5-5-5-|
|3--3-3-3-3--5--5-5-5-5-|


Chorus 1

|-----------------------|-----------------------------|
|-----------------------|-----------------------------|
|-----------------------|-----------------------------|
|5--5-5-5-5--6--6-6-6-6-|8--8-8-8-8--10--10-10-10-10--|
|5--5-5-5-5--6--6-6-6-6-|8--8-8-8-8--10--10-10-10-10--|
|5--5-5-5-5--6--6-6-6-6-|8--8-8-8-8--10--10-10-10-10--|

|-----------------------|-----------------|
|-----------------------|-----------------|
|-----------------------|-----------------|
|5--5-5-5-5--6--6-6-6-6-|8--8-8-8-8--10---|
|5--5-5-5-5--6--6-6-6-6-|8--8-8-8-8--10---|
|5--5-5-5-5--6--6-6-6-6-|8--8-8-8-8--10---|


Interlude

|------------------------------------------|
|------------------------------------------|
|------------------------------------------|
|------------------------------------------|
|0--5--5--0--0-0-0--6-5--0--5--5-5-3-------|
|0--------0--0-0-0-------0------------6--5-|

|-------------------------------------------------|
|-------------------------------------------------|
|-------------------------------------------------|
|-----------------------------------0-0-3--0-0-5--|
|0--5--5--0--0-0-0--6-5--0--5--5-5--0-0-3--0-0-5--|
|0--------0--0-0-0-------0----------0-0-3--0-0-5--|
                                    PM-|   PM-|


Verse 2

|-------------|------------------------------------------|
|-------------|------------------------------------------|
|-------------|------------------------------------------|
|0------------|------------------------------------------|
|0------------|0--5--5--0--0-0-0--6-5--0--5--5-5-3-------|
|0------------|0--------0--0-0-0-------0------------6--5-|

|-------------|------------------------------------------|
|-------------|------------------------------------------|
|-------------|------------------------------------------|
|0------------|-------------------------------------6--5-|
|0------------|0--5--5--0--0-0-0--6-5--0--5--5-5-3--6--5-|
|0------------|0--------0--0-0-0-------0------------6--5-|

|-----------------------|-----------------------------------------|
|-----------------------|-----------------------------------------|
|-----------------------|-----------------------------------------|
|5--5-5-5-5--3--3-3-3-3-|---7-7------------8-7-----7--7-7-5--6--5-|
|5--5-5-5-5--3--3-3-3-3-|0--5-5--0--0-0-0--6-5--0--5--5-5-3--6--5-|
|5--5-5-5-5--3--3-3-3-3-|0-------0--0-0-0-------0------------6--5-|

|-----------------------|
|-----------------------|
|-----------------------|
|3--3-3-3-3--5--5-5-5-5-|
|3--3-3-3-3--5--5-5-5-5-|
|3--3-3-3-3--5--5-5-5-5-|


Chorus 2

 /-------------------------3x------------------------\

|-----------------------|-----------------------------|
|-----------------------|-----------------------------|
|-----------------------|-----------------------------|
|5--5-5-5-5--6--6-6-6-6-|8--8-8-8-8--10--10-10-10-10--|
|5--5-5-5-5--6--6-6-6-6-|8--8-8-8-8--10--10-10-10-10--|
|5--5-5-5-5--6--6-6-6-6-|8--8-8-8-8--10--10-10-10-10--|

|-----------------------|-------------------------------------|
|-----------------------|-------------------------------------|
|-----------------------|-------------------------------------|
|5--5-5-5-5--6--6-6-6-6-|8--8-8-8-8--10--10-10-10-10-10-10-10-|
|5--5-5-5-5--6--6-6-6-6-|8--8-8-8-8--10--10-10-10-10-10-10-10-|
|5--5-5-5-5--6--6-6-6-6-|8--8-8-8-8--10--10-10-10-10-10-10-10-|
                                         PM------------------|

Interlude  gtr 1  w/ wah                                gtrs 1 & 2 wah off

|-----------------|-----------------|-----------------|-------------------|
|-----------------|-----------------|-----------------|-------------------|
|-----------------|-----------------|-----------------|-------------------|
|0--0--0--0--0-3--|0--0--0--0--0-3--|0--0--0--0--0-3--|6--5--3---6--5--3--|
|0--0--0--0--0-3--|0--0--0--0--0-3--|0--0--0--0--0-3--|6--5--3---6--5--3--|
|0--0--0--0--0-3--|0--0--0--0--0-3--|0--0--0--0--0-3--|6--5--3---6--5--3--|


gtr 1 w/ wah                                           gtrs 1 & 2 wah off

|-----------------|-----------------|-----------------|----------|
|-----------------|-----------------|-----------------|----------|
|-----------------|-----------------|-----------------|----------|
|0--0--0--0--0-3--|0--0--0--0--0-3--|0--0--0--0--0-3--|6---------|
|0--0--0--0--0-3--|0--0--0--0--0-3--|0--0--0--0--0-3--|6---------|
|0--0--0--0--0-3--|0--0--0--0--0-3--|0--0--0--0--0-3--|6---------|


Verse 3  gtrs 1 & 2 wah off

 /------------------------------------------3x---------------------------\

|-----------------|-----------------|-----------------|-------------------|
|-----------------|-----------------|-----------------|-------------------|
|-----------------|-----------------|-----------------|-------------------|
|0--0--0--0--0-3--|0--0--0--0--0-3--|0--0--0--0--0-3--|6--5--3---6--5--3--|
|0--0--0--0--0-3--|0--0--0--0--0-3--|0--0--0--0--0-3--|6--5--3---6--5--3--|
|0--0--0--0--0-3--|0--0--0--0--0-3--|0--0--0--0--0-3--|6--5--3---6--5--3--|

|-----------------|-----------------|-----------------|----------|
|-----------------|-----------------|-----------------|----------|
|-----------------|-----------------|-----------------|----------|
|0--0--0--0--0-3--|0--0--0--0--0-3--|0--0--0--0--0-3--|6---------|
|0--0--0--0--0-3--|0--0--0--0--0-3--|0--0--0--0--0-3--|6---------|
|0--0--0--0--0-3--|0--0--0--0--0-3--|0--0--0--0--0-3--|6---------|


Interlude  gtr 2

|-------------|-------------------------------------------|
|-------------|-------------------------------------------|
|-------------|-------------------------------------------|
|-------------|-------------------------------------------|
|x\\\\\\\\\---|0--5--5--0--0-0-0--6-5--0--5--5-5-3--------|
|x\\\\\\\\\\--|0--------0--0-0-0-------0------------6--5--|
 pick slide

now  dunno the solo but heres rythm.


gtr 2 (Rythm)

|------------------------------------------|        ---
|------------------------------------------|         |
|------------------------------------------|         |
|------------------------------------------|         |
|0--5--5--0--0-0-0--6-5--0--5--5-5-3-------|         |
|0--------0--0-0-0-------0------------6--5-|         2x
                                                     |
|-------------------------------------------------|  |
|-------------------------------------------------|  |
|-------------------------------------------------|  |
|-----------------------------------0-0-3--0-0-5--|  |
|0--5--5--0--0-0-0--6-5--0--5--5-5--0-0-3--0-0-5--|  |
|0--------0--0-0-0-------0----------0-0-3--0-0-5--| ---
                                    PM-|   PM-|


Chorus 3   gtr 2

 /-------------------------3x------------------------\

|-----------------------|-----------------------------|
|-----------------------|-----------------------------|
|-----------------------|-----------------------------|
|5--5-5-5-5--6--6-6-6-6-|8--8-8-8-8--10--10-10-10-10--|
|5--5-5-5-5--6--6-6-6-6-|8--8-8-8-8--10--10-10-10-10--|
|5--5-5-5-5--6--6-6-6-6-|8--8-8-8-8--10--10-10-10-10--|

|-----------------------|-------------------------------------|
|-----------------------|-------------------------------------|
|-----------------------|-------------------------------------|
|5--5-5-5-5--6--6-6-6-6-|8--8-8-8-8--10--10-10-10-10-10-10-10-|
|5--5-5-5-5--6--6-6-6-6-|8--8-8-8-8--10--10-10-10-10-10-10-10-|
|5--5-5-5-5--6--6-6-6-6-|8--8-8-8-8--10--10-10-10-10-10-10-10-|


Outro  gtrs 1 & 2

|------------------------------------------|
|------------------------------------------|
|------------------------------------------|
|------------------------------------------|
|0--5--5--0--0-0-0--6-5--0--5--5-5-3-------|
|0--------0--0-0-0-------0------------6--5-|

|-------------------------------------------------|
|-------------------------------------------------|
|-------------------------------------------------|
|-----------------------------------0-0-3--0-0-5--|
|0--5--5--0--0-0-0--6-5--0--5--5-5--0-0-3--0-0-5--|
|0--------0--0-0-0-------0----------0-0-3--0-0-5--|
                                    PM-|   PM-|


tab legend
-----------

PM     palm mute


Please Rate sorry bout the solo i'll try to figure it out.

            
            
Suggest correction
Creating personal tab
Creating personal tab
You can edit any tab online and save it as your Personal.

You can edit, replace or remove any tab part or add personal notes – all changes will be seen only by you.

Personal tabs can be accessed anytime from any device, even offline.
Learn more »
Give kudos to tab author, rate the tab!
1 2 3 4 5
comments
print report bad tab
1 comment total.
0 reply
Tatsuike 10 Mar 18, 2007 05:20 AM

Are u sure the tuning is correct?

guest
You may want to rate the tab now too:
select rating
Wanna post a correction for this tab? Suggest correction