Oops, an error
Loading. Please wait.

Vampires bass

version 2
version 2

Whole song

Interactive

483 views 1 this week
1 commentread comment
1 2 3 4 5
3 more votes to show rating
add to favorites
×
Save as Personal and add changes to this tab that will be seen only by you. Learn more ›
×
You can save this tab as Personal to edit and correct it or add notes. All changes will be seen only by you. Learn more »
launch autoscroll
font size
0
reset
guitar tuner
backing track
0:00
0:00
edit
Autoscroll
slow
fast
+/-
esc
set tempo
stop
Song: Vampires
Artist: Godsmack
Album: Awake
Track: 9
Corrected by: Dave Rieger (korn@cbnnow.com) 
Originally tabbed by:Bryan Jarvinen (ibanezgsr200bass@yahoo.com)

This song's real easy to play but sounds pretty whack with distortion. This is 
my first tab but I'm pretty sure its perfect.I added a few missing riffs from 
the previous tab, and corrected all the ones here before.


Drop D-tuning

Guitars play through main riff first, then bass comes in a few seconds after 
drums



Riff 1/Main Riff

G|-----------------------------------------------------------------------------|
D|-----------------------------------------------------------------------------|
A|-----------------------------------------------------------------------------|
D|-0-0--0-3-3--3-5-5---0-0--0-3-3--3-5-5---0-0--0-3-3--3-5-5--6-6-6-666-55-5-5-|

Riff 2

G|-------------------------------------------------------------------------------|
D|-------------------------------------------------------------------------------|
A|-------------------------------------------------------------------------------|
D|-0-0--0-3-3--3-5-5---0-0--0-3-3--3-5-5---0-0--0-3-3--3-5-5---0-0--0-3-3--3-5-5-|


Riff 3

G|----------------------------|
D|----------------------------|
A|----------------------------|
D|-0h3--0h3--0h3--0h3---0-----|

                

Riff 4

G|--------------------------------------------------|
D|--------------------------------------------------|
A|--------------------------------------------------|
D|-0-0--00333-0-0-0-0--00---------------------------|

Riff 5

G|------------------------------------------------|
D|------------------------------------------------|
A|------------------------------------------------|
D|-3-000--5-00--6--000-33-00----------------------|


Riff 6

G|---------------------|
D|---------------------|
A|---------------------|
D|-33-33-33-33--3-3----|


Its pretty easy to figure out the order of it by listening to the song, you 
shouldnt have much trouble i dont think. E-mail any corrections, questions, 
comments, death threats, etc. to korn@cbnnow.com.

            
            
Suggest correction
Creating personal tab
Creating personal tab
You can edit any tab online and save it as your Personal.

You can edit, replace or remove any tab part or add personal notes – all changes will be seen only by you.

Personal tabs can be accessed anytime from any device, even offline.
Learn more »
Give kudos to tab author, rate the tab!
1 2 3 4 5
comments
print report bad tab
1 comment total.
0 reply
badhabit000 30 Aug 30, 2006 11:45 AM

the part thats goes


----3-0-0-0---5-0-0-0---6-0-0-0


sounds better like this


---1-0-0-0-3-0-0-0-5-0-0-0-1-0-0-0

guest
Wanna post a correction for this tab? Suggest correction