Oops, an error
Loading. Please wait.
We have an official Voodoo tab made by UG professional guitarists. Check out the tab »
×

Voodoo bass

version 1
version 1

Whole song

Interactive

25,724 views 33 this week
9 commentsread comments
1 2 3 4 5
x 24
add to favorites
×
Save as Personal and add changes to this tab that will be seen only by you. Learn more ›
×
You can save this tab as Personal to edit and correct it or add notes. All changes will be seen only by you. Learn more »
launch autoscroll
font size
0
reset
guitar tuner
backing track
0:00
0:00
edit
Autoscroll
slow
fast
+/-
esc
set tempo
stop
Author
Artist - Godsmack
Song - Voodoo
Album - Godsmack

Standard tuning (EADG)

Verse:

G/-----------------------
D/---------3-4-3---------
A/---------------3-------
E/-1-1-1-1---------4-3-0-

Chorus:

G/---------------------------
D/-----------3-1-----------1-
A/---1---1-3-----3-----1-3---
E/-1---1-----------4---------

G/--------------------------
D/-----------1--------------
A/---1---1-3----------------
E/-1---1-------4-4-4-3-4-3-0

G/---------------------------
D/-----------3-1-----------1-
A/---1---1-3-----3-----1-3---
E/-1---1-----------4---------

G/-------------------
D/-----------1-------
A/---1---1-3---------
E/-1---1--------0-0-1

            
            
Suggest correction
Creating personal tab
Creating personal tab
You can edit any tab online and save it as your Personal.

You can edit, replace or remove any tab part or add personal notes – all changes will be seen only by you.

Personal tabs can be accessed anytime from any device, even offline.
Learn more »
comments
print report bad tab
9 comments total. Showing first comments.
+4 reply
evanescence21 10 Feb 24, 2005 07:00 PM

hey man not bad on the tab...but i think for the end part of the verse...its and i tried it and is sounded pretty close...that its not 4-3-0...but...3-4-3...course thats my opinion...try it out..and tell me..thanks...later!

0 reply
rsskin02 10 Feb 11, 2007 03:12 PM

i think its close to what he has jus instead of 4-3-0 its 4-3-1......it sounds a bit better but awesome tab man!!

0 reply
Godsmack4EVER! 10 Jul 24, 2008 09:47 AM

I think the verse should be this:

G|----------------------
D|------------3-3-4-3---
A|--------------------3-
D|-3-33-3-3-------------

guest
You may want to rate the tab now too:
select rating
Wanna post a correction for this tab? Suggest correction