Oops, an error
Loading. Please wait.

Moya tab

version 1
version 1

Whole song

Interactive

15,137 views 15 this week
6 commentsread comments
1 2 3 4 5
x 6
add to favorites
×
Save as Personal and add changes to this tab that will be seen only by you. Learn more ›
×
You can save this tab as Personal to edit and correct it or add notes. All changes will be seen only by you. Learn more »
launch autoscroll
font size
0
reset
how to read this tab
guitar tuner
edit
Autoscroll
slow
fast
+/-
esc
set tempo
stop
Author
This is not the entire song, but merely the main themes played throughout it. Just 
to the song and repeat as necessary. Oh and I am missing a few parts, but a lot of the 
are too hard for me to hear.


Solo Part (After the String intro) Starts at 3:44

Db ------------------------------------------------|
Bb --12----------------10-------7--------8---------|
F  --0--------13-------X--------X--------10--------|
Db --12-------12-------12-------7--------9---------|
Bb --------0--------0--------0--------0--------0---|
Eb ------------------------------------------------|
     1  2  3  1  2  3  1  2  3  1  2  3  1  2  3  -|


Db ------------------------------------------------|
Bb --5--------3--------2--------0--------2---------|
F  --5--------3--------1--------0--------1---------|
Db --5--------4--------2--------0--------2---------|
Bb --------0--------0--------0--------0--------0---|
Eb ------------------------------------------------|
     1  2  3  1  2  3  1  2  3  1  2  3  1  2  3  -|


Starts at 4:58 - The guitar has a lot of reverb and other assorted effects -and this 
is repeated throughout a great portion of the song. And there is a little improvisation on 
theme, but this is really the main idea.

Db ------------------------------------------------|
Bb ------------------------------------------------|
F  --5-----5--/--7----7---/--8-----8--\--5-----5--/|
Db ------------------------------------------------|
Bb ------------------------------------------------|
Eb ------------------------------------------------|
     1  2  3  4  1  2  3  4  1  2  3  4  1  2  3  4|

Db ------------------------------------------------|
Bb --------------------------------8-----7-----5---|
F  --7-----------7--\--5---------------------------|
Db --------7-----------------5---------------------|
Bb ------------------------------------------------|
Eb ------------------------------------------------|
     1  2  3  4  1  2  3  4  1  2  3  4  1  2  3  4|

Db ------------------------------------------------|
Bb ------------------------------------------------|
F  --8--\--7--\--5---------------------------------|
Db ------------------------------------------------|
Bb ------------------------------------------------|
Eb ------------------------------------------------|
     1  2  3  4  1  2  3  4  1  2  3  4  1  2  3  4|

The Guitar that comes in at 5:11 - this repeats for a while
Db --9"----11"---12"---9"----11"---7"----9"----15"-|
Bb ------------------------------------------------|
F  ------------------------------------------------|
Db ------------------------------------------------|
Bb ------------------------------------------------|
Eb ------------------------------------------------|
     1  2  3  4  1  2  3  4  1  2  3  4  1  2  3  4|

Db --14"---12"---11"---9"--------------------------|
Bb ------------------------------------------------|
F  ------------------------------------------------|
Db ------------------------------------------------|
Bb ------------------------------------------------|
Eb ------------------------------------------------|
     1  2  3  4  1  2  3  4  1  2  3  4  1  2  3  4|

Starts at 5:59, then blends into the above guitar's part

Db --17"---15"---14"---12"---11"---9"--------------|
Bb ------------------------------------------------|
F  ------------------------------------------------|
Db ------------------------------------------------|
Bb ------------------------------------------------|
Eb ------------------------------------------------|
     1  2  3  4  1  2  3  4  1  2  3  4  1  2  3  4|


This guitar starts at 7:11

Db --9--11-12-11-12-14-12-14-15-14-15-17-----------|
Bb ------------------------------------------------|
F  ------------------------------------------------|
Db ------------------------------------------------|
Bb ------------------------------------------------|
Eb ------------------------------------------------|
     1  2  3  4  1  2  3  4  1  2  3  4  1  2  3  4|

Db --5--7--9--4--5--7--2--4--5--0--2--4------------|
Bb ------------------------------------------------|
F  ------------------------------------------------|
Db ------------------------------------------------|
Bb ------------------------------------------------|
Eb ------------------------------------------------|
     1  2  3  4  1  2  3  4  1  2  3  4  1  2  3  4|


This Guitar Starts at 8:26
Db -----------------------------------5------------|
Bb -----------------5-----5--7--5--7---------------|
F  --5--7--8--7--8-----8---------------------------|
Db ------------------------------------------------|
Bb ------------------------------------------------|
Eb ------------------------------------------------|
          1  2  3  4  1  2  3  4  1  2  3  4  1  2  3  4|

            
            
Suggest correction
Creating personal tab
Creating personal tab
You can edit any tab online and save it as your Personal.

You can edit, replace or remove any tab part or add personal notes – all changes will be seen only by you.

Personal tabs can be accessed anytime from any device, even offline.
Learn more »
comments
print report bad tab
6 comments total. Showing first comments.
0 reply
iiseddie 30 Jan 27, 2009 09:53 AM

The Guitar that comes in at 5:11 - this repeats for a while
Db --9"----11"---12"---9"----11"---7"----9"----15"-|
Bb ------------------------------------------------|
F ------------------------------------------------|
Db ------------------------------------------------|
Bb ------------------------------------------------|
Eb ------------------------------------------------|
1 2 3 4 1 2 3 4 1 2 3 4 1 2 3 4|

Sorry wrong time, it actually fades in at around 5:40ish.

0 reply
Neil Aran 123 Jan 27, 2009 02:01 PM

wow, this is my favourite GY!BE song (not to mention one of my favourite songs in general) and so I'm so glad to see a tab for it. thanks so much.

+1 reply
jahu 195 Feb 14, 2009 11:38 PM

Db --9--11-12-11-12-14-12-14-15-14-15-17-----------|

shouldn't it be F (16th fret) instead of E (15) ?

guest
You may want to rate the tab now too:
select rating
Wanna post a correction for this tab? Suggest correction