Oops, an error
Loading. Please wait.

Going To The Run tab

version 1
version 1

Whole song

Interactive

54,842 views 51 this week
2 commentsread comments
1 2 3 4 5
x 10
add to favorites
×
Save as Personal and add changes to this tab that will be seen only by you. Learn more ›
×
You can save this tab as Personal to edit and correct it or add notes. All changes will be seen only by you. Learn more »
launch autoscroll
font size
0
reset
how to read this tab
guitar tuner
edit
Autoscroll
slow
fast
+/-
esc
set tempo
stop
[Intro]

                    Em                        C                        G
E|-------------0--------0-----------0--------0----------3------3--------3----|
B|-------------0-----------0--------1-----------1-------0--------0------0----|
G|-------------0-----0--------0-----0-----0--------0----0----0-----0----0----|
D|----------0--2--2--------------0--2--2--------------0-0--0---------0--0----|
A|----0--2-----2--------------------3-------------------x--------------------|
E|-3-----------0--------------------0-------------------3--------------------|

                    Em                        C                        D
E|-------------0--------0-----------0--------0----------2------2--------2----|
B|-------------0-----------0--------1-----------1-------3--------3------3----|
G|-------------0-----0--------0-----0-----0--------0----2----2-----2----2----|
D|----------0--2--2--------------0--2--2--------------0-0--0---------0--0----|
A|----0--2-----2--------------------3-------------------0--------------------|
E|-3-----------0--------------------0-------------------0--------------------|

This can be repeated throughout the rest of the song


[Verse]

                     Em             C                G
 I could bet on new years eve he call me up at night
                          Em          C            D
 From the other side of the world Ed was always there allright
               Am              G                D           C
 Ed's got the looks of a moviestar Eds got the smile of a prince
       D          G            C                  D
 He ride a bike instead of a car I wanna be his friend
                    Em              C      G
 Dancing in the living room with a lady so nice
                          Em         C            D
 Like the child with the wisdom tooth He's just a friend of mine
                  Am             G              D            C
 Ed's got the rings and the collars Eds got the wind in his hair
     D                     G       C                     D
 He goes a riding with the brothers he got a fist in the air


[Chorus]

                 Em   C    D
 Going to the run the run angel
                 Em   D    Em
 Going to the run the run angel
        C                   D
 Well, heaven and hell came together that night
 C                  D
 Only for you that time
                 Am  D        G
 Going to the run forever angel


[Verse]

                     Em     C                G
 On summer at the festival holding on real tight
                      Em     C            D
 On the back of a harley you took me for a ride in the sky
             Am          G                   D          C
 Ed's got the looks of a winner Ed's got the smile of a prince
      D          G              C                D
 He ride a bike instead of a car I always be his friend


[Chorus]

              Em      C    D
 Going to the run the run angel
              Em      D    Em
 Going to the run the run angel
         C               D
 There's rich star that shines so bright
        C           D
 Like a fire in the night
               Am  D      G
 Going to the run forever angel
              Em      C    G
 Going to the run the run angel
                    Em        C   D
 Forever going to the run the run angel
       C                         D
 Well, heaven and hell came together that night
  C                 D
 Only for you this time
              Am  C        G
 Going to the run forever angel

            
            
Suggest correction
Creating personal tab
Creating personal tab
You can edit any tab online and save it as your Personal.

You can edit, replace or remove any tab part or add personal notes – all changes will be seen only by you.

Personal tabs can be accessed anytime from any device, even offline.
Learn more »
comments
print report bad tab
2 comments total.
+2 reply
Aonixxer6 10 Jul 26, 2008 10:15 AM

ja mang een tata boi heeft deze tab gedaan

0 reply
TheFlake 40 Aug 23, 2013 07:16 AM

Thanks you made my day.

guest
Wanna post a correction for this tab? Suggest correction