Oops, an error
Loading. Please wait.

Twilight Zone bass

version 1
version 1

Whole song

Interactive

30,959 views 42 this week
1 commentread comment
1 2 3 4 5
x 17
add to favorites
×
Save as Personal and add changes to this tab that will be seen only by you. Learn more ›
×
You can save this tab as Personal to edit and correct it or add notes. All changes will be seen only by you. Learn more »
launch autoscroll
font size
0
reset
guitar tuner
backing track
0:00
0:00
edit
Autoscroll
slow
fast
+/-
esc
set tempo
stop
Author
Twilight Zone- Golden Earring
Tabbed By: JScott
E-mail: penobypost@hotmail.com

Such A Cool Song
Tuning: Standard

[Intro/Verse]
G|----------------------------------------------------------------|
D|----------------------------------------------------------------|
A|2-2-2-2-2-2-2-2-2-2-2-2-2-2-2-2---------------------------------|
E|--------------------------------0-0-0-0-0-0-0-0-0-0-0-0-0-0-0-0-|

G|-----------------------------------------------------------------|
D|-----------------------------------------------------------------|
A|--------------------------------2-2-2-2-2-2-2-2-2-2-2-2-2-2-2-2--|
E|-2-2-2-2-2-2-2-2-2-2-2-2-2-2-2-2---------------------------------|

[Chorus]
G|-----------------------------------------------------------------|
D|-----------------------------------------------------------------|
A|2-2-2-2-2-2-2-2-2-2-2-2-2-2-2-2--0-0-0-0-0-0-0-0-0-0-0-0-0-0-0-0-|
E|-----------------------------------------------------------------|

G|----------------------------------------------------------------|
D|----------------------------------------------------------------|
A|----------------------------------------------------------------|
E|3-3-3-3-3-3-3-3-3-3-3-3-3-3-3-3-2-2-2-2-2-2-2-2-2-2-2-2-2-2-2-2-|

[Bridge]
G|---------------------------------------------------------------------------|
D|---------------------------------------------------------------------------|
A|-------------------------------------------2-2-2-2-2-2-2-2-2-2-2-2-2-2-2-2-|
E|-3-3-3-3-2-0-0-0-0-0-0-0-0-0-0-0-0-0-0-0-0---------------------------------|

Solo (Repeat Through Entire Solo)
G|--------------------------------------------------------------------|
D|-020--020-----------------------------------------------------------|
A|2---2---------------------------------------------------------------|
E|--------------------------------------------------------------------|

            
            
Suggest correction
Creating personal tab
Creating personal tab
You can edit any tab online and save it as your Personal.

You can edit, replace or remove any tab part or add personal notes – all changes will be seen only by you.

Personal tabs can be accessed anytime from any device, even offline.
Learn more »
comments
print report bad tab
1 comment total.
+1 reply
System Error 10 Feb 16, 2010 11:15 AM

There are times during the solo that the bass line sounds a little different, but the same notes are played. I'm not sure if this is done simply by a different right-hand technique or what, but the best way I replicate the different sound is by playing:

G|------------------|
D|------------------|
A|--5-7-5---57-(7)5-| (note: IIRC, the ghost-E is sometimes played.)
E|7-------7---------|


On my Ibanez whatever-model-is-slightly-better-than-the-jump-pack-model, I play the part with the A and D strings above the pickup closest to the bridge, while I play the part with the E and A strings over the pickup closest to the neck

guest
You may want to rate the tab now too:
select rating
Wanna post a correction for this tab? Suggest correction