Oops, an error
Loading. Please wait.

A Million Miles tab

151 views 9 this week
no commentswrite comment
1 2 3 4 5
1 last vote to show rating
add to favorites
×
Save as Personal and add changes to this tab that will be seen only by you. Learn more ›
×
You can save this tab as Personal to edit and correct it or add notes. All changes will be seen only by you. Learn more »
launch autoscroll
font size
0
reset
how to read this tab
guitar tuner
edit
Autoscroll
slow
fast
+/-
esc
set tempo
stop
Artist: Goldfinger
Song: A Million Miles
Album: The Knife [2017]

[Intro]
Guitar 1 (Distortion)
e|-----------------------|-----------------------|-----------------------|-----------------------|
B|-----------------------|-----------------------|-----------------------|-----------------------|
G|-7--7-----7--7--7-----7|11-11----11-11-11----11|-4--4-----4--4--4-----4|12-12----12-12-12----12|
D|-x--x-----x--x--x-----x|-x--x-----x--x--x-----x|-x--x-----x--x--x-----x|-x--x----x--x--x------x|
A|-5--5-----5--5--5-----5|-9--9-----9--9--9-----9|-2--2-----2--2--2-----2|10-10----10-10-10----10|
E|-7--7-----7--7--7-----7|10-10----10-10-10----10|-3--3-----3--3--3-----3|12-12----12-12-12----12|


Guitar 1 (Distortion)
e|-----------------------|-----------------------|-----------------------|-----------------------|
B|-----------------------|-----------------------|-----------------------|-----------------------|
G|-7--7-----7--7--7-----7|11-11----11-11-11----11|-4--4-----4--4--4-----4|-9.----9.----9.----9.--|    
D|-x--x-----x--x--x-----x|-x--x-----x--x--x-----x|-x--x-----x--x--x-----x|-9.----9.----9.----9.--|    
A|-5--5-----5--5--5-----5|-9--9-----9--9--9-----9|-2--2-----2--2--2-----2|-7.----7.----7.----7.--|    
E|-7--7-----7--7--7-----7|10-10----10-10-10----10|-3--3-----3--3--3-----3|-7.----7.----7.----7.--|
Guitar 2 (Distortion)
e|-----------------------|-----------------------|-----------------------|-----------------------|
B|-----------------------|-----------------------|-----------------------|-----------------------|
G|-7--7-----7--7--7-----7|11-11----11-11-11----11|12-12----12-12-12----12|12.---12.---12.---12.--|
D|-x--x-----x--x--x-----x|-x--x-----x--x--x-----x|-x--x-----x--x--x-----x|-x.----x.----x.----x.--|
A|-5--5-----5--5--5-----5|-9--9-----9--9--9-----9|10-10----10-10-10----10|10.---10.---10.---10.--|
E|-----------------------|-----------------------|-----------------------|-----------------------|


Guitar 1 (Distortion)
  B5                      D5                      G5                      E5
e|-----------------------|-----------------------|-----------------------|-----------------------|
B|-----------------------|-----------------------|-----------------------|-----------------------|
G|-4--4-----4--4--4-----4|-7--7-----7--7--7-----7|-----------------------|-9--9-----9--9---------|
D|-4--4-----4--4--4-----4|-7--7-----7--7--7-----7|-5--5-----5--5--5-----5|-9--9-----9--9--9--9--9|
A|-2--2-----2--2--2-----2|-5--5-----5--5--5-----5|-5--5-----5--5--5-----5|-7--7-----7--7--7--7--7|
E|-----------------------|-----------------------|-3--3-----3--3--3-----3|-----------------------|
                                                                                       PM¦-------¦
Guitar 2 (Distortion)
e|-----------------------|-----------------------|-----------------------|-----------------------|
B|-----------------------|-----------------------|-----------------------|-----------------------|
G|-7--7-----7--7--7-----7|11-11---11-11-11-----11|16-16----16-16-16----16|12-12----12-12---------|
D|-x--x-----x--x--x-----x|-x--x----x--x--x------x|-x--x-----x--x--x-----x|-x--x-----x--x---------|
A|-5--5-----5--5--5-----5|-9--9----9--9--9------9|14-14----14-14-14----14|10-10----10-10-10-10-10|
E|-----------------------|-----------------------|-----------------------|-----------------------|
                                                                                      PM¦--------¦

Guitar 1 (Distortion)
  B5                      D5                      G5
e|-----------------------|-----------------------|-----------------------|-----------------------|
B|-----------------------|-----------------------|-----------------------|-----------------------|
G|-4--4-----4--4--4-----4|-7--7-----7--7--7-----7|-----------------------|-----------------------|
D|-4--4-----4--4--4-----4|-7--7-----7--7--7-----7|-5--5-----5--5--5-----5|-\\\\\\\\\\\\\\\\\\\\\-|
A|-2--2-----2--2--2-----2|-5--5-----5--5--5-----5|-5--5-----5--5--5-----5|-\\\\\\pickslide\\\\\\-|
E|-----------------------|-----------------------|-3--3-----3--3--3-----3|-\\\\\\\\\\\\\\\\\\\\\-|
Guitar 2 (Distortion)
e|-----------------------|-----------------------|-----------------------|-----------------------|
B|-----------------------|-----------------------|-----------------------|-----------------------|
G|-7--7-----7--7--7-----7|11-11----11-11-11----11|16-16----16-16-16----16|-----------------------|
D|-x--x-----x--x--x-----x|-x--x-----x--x--x-----x|-x--x-----x--x--x-----x|-\\\\\\\\\\\\\\\\\\\\\-|
A|-5--5-----5--5--5-----5|-9--9-----9--9--9----12|14-14----14-14-14----14|-\\\\\\pickslide\\\\\\-|
E|-----------------------|-----------------------|-----------------------|-\\\\\\\\\\\\\\\\\\\\\-|


[Verse]
Guitar 1 (Distortion)
  B5                      D5                      G5                      E5
e|-----------------------|-----------------------|-----------------------|-----------------------|
B|-----------------------|-----------------------|-----------------------|-----------------------|
G|-----------------------|-----------------------|-----------------------|-9--------9--9---------|
D|-4--4-----4--4--4-----4|-7--7-----7--7--7-----7|-----------------------|-9--9N----9--9--9N-----|
A|-2--2-----2--2--2-----2|-5--5-----5--5--5-----5|-5--5-----5--5--5-----5|-7--7N----7--7--7N-----|
E|-----------------------|-----------------------|-3--3-----3--3--3-----3|-----------------------|
 PM¦----------------------------------------------------------------------¦ ¦------¦     ¦-------¦
   Take a breath now take a beat cause I can't take no more

Guitar 1 (Distortion)
  B5                      D5                      G5                      E5
e|-----------------------|-----------------------|-----------------------|-----------------------|
B|-----------------------|-----------------------|-----------------------|-----------------------|
G|-----------------------|-----------------------|-----------------------|-9.----9.----9.----9.--|
D|-4--4-----4--4--4-----4|-7--7-----7--7--7-----7|-----------------------|-9.----9.----9.----9.--|
A|-2--2-----2--2--2-----2|-5--5-----5--5--5-----5|-5--5-----5--5--5-----5|-7.----7.----7.----7.--|
E|-----------------------|-----------------------|-3--3-----3--3--3-----3|-----------------------|
 PM¦---------------------------------------------------------------------¦
   Everyone is taking shots I can not beat the score
 

[Pre Chorus]
Guitar 1 (Distortion)
  D5                      D5                      A5                      A5
e|-----------------------|-----------------------|-----------------------|-----------------------|
B|-----------------------|-----------------------|-----------------------|-----------------------|
G|-7---------------------|-----------------------|-----------------------|-----------------------|
D|-7-----7--7--7--7--7--7|-7--7--7--7--7--7--7--7|-7---------------------|-----------------------|
A|-5-----5--5--5--5--5--5|-5--5--5--5--5--5--5--5|-7-----7--7--7--7--7--7|-7--7--7--7--7--7--7--7|
E|-----------------------|-----------------------|-5-----5--5--5--5--5--5|-5--5--5--5--5--5--5--5|
      PM¦-----------------------------------------¦     ¦----------------------------------------¦
  Where did my life go? Where did my life go?

Guitar 1 (Distortion)
  G5                      G5                      G5                      G5
e|-----------------------|-----------------------|-----------------------|-----------------------|
B|-----------------------|-----------------------|-----------------------|-----------------------|
G|-----------------------|-----------------------|-----------------------|-----------------------|
D|-5--5-----5--5--5-----5|-5--5-----5--5--5-----5|-5--5--5--5--5--5--5--5|-5\--------------------|
A|-5--5-----5--5--5-----5|-5--5-----5--5--5-----5|-5--5--5--5--5--5--5--5|-5\--------------------|
E|-3--3-----3--3--3-----3|-3--3-----3--3--3-----3|-3--3--3--3--3--3--3--3|-3\--------------------|
Where did my life go?


[Chorus]
Guitar 1 (Distortion)
  D5                      D5                      A5                      A5
e|-----------------------|-----------------------|-----------------------|-----------------------|
B|-----------------------|-----------------------|-----------------------|-----------------------|
G|-7--7--7--7--7--7--7--7|-7--7--7--7--7--7--7--7|-----------------------|-----------------------|
D|-7--7--7--7--7--7--7--7|-7--7--7--7--7--7--7--7|-7--7--7--7--7--7--7--7|-7--7--7--7--7--7--7--7|
A|-5--5--5--5--5--5--5--5|-5--5--5--5--5--5--5--5|-7--7--7--7--7--7--7--7|-7--7--7--7--7--7--7--7|
E|-----------------------|-----------------------|-5--5--5--5--5--5--5--5|-5--5--5--5--5--5--5--5|
Guitar 2 (Distortion)
e|-----------------------|-----------------------|-----------------------|-----------------------|
B|-----------------------|-----------------------|-----------------------|-----------------------|
G|11-11-11-11-11-11-11-11|14-14-14-14-14-14-14-14|-9--9--9--9--9--9--9--9|14-14-14-14-14-14-14-14|
D|-x--x--x--x--x--x--x--x|-x--x--x--x--x--x--x--x|-x--x--x--x--x--x--x--x|-x--x--x--x--x--x--x--x|
A|-9--9--9--9--9--9--9--9|12-12-12-12-12-12-12-12|-7--7--7--7--7--7--7--7|12-12-12-12-12-12-12-12|
E|-----------------------|-----------------------|-----------------------|-----------------------|
  I just can't hold it back no more

Guitar 1 (Distortion)
  B5                      B5                      G5                      G5
e|-----------------------|-----------------------|-----------------------|-----------------------|
B|-----------------------|-----------------------|-----------------------|-----------------------|
G|-4--4--4--4--4--4--4--4|-4--4--4--4--4--4--4--4|-----------------------|-----------------------|
D|-4--4--4--4--4--4--4--4|-4--4--4--4--4--4--4--4|-5--5--5--5--5--5--5--5|-5.----5.----5--5--5---|
A|-2--2--2--2--2--2--2--2|-2--2--2--2--2--2--2--2|-5--5--5--5--5--5--5--5|-5.----5.----5--5--5---|
E|-----------------------|-----------------------|-3--3--3--3--3--3--3--3|-3.----3.----3--3--3---|
Guitar 2 (Distortion)
e|-----------------------|-----------------------|-----------------------|-----------------------|
B|-----------------------|-----------------------|-----------------------|-----------------------|
G|-7--7--7--7--7--7--7--7|-9--9--9--9-11-11-11-11|-7--7--7--7--7--7--7--7|-7.----7.----7--7--7---|
D|-x--x--x--x--x--x--x--x|-x--x--x--x--x--x--x--x|-x--x--x--x--x--x--x--x|-x.----x.----x--x--x---|
A|-5--5--5--5--5--5--5--5|-7--7--7--7--9--9--9--9|-5--5--5--5--5--5--5--5|-5.----5.----5--5--5---|
E|-----------------------|-----------------------|-----------------------|-----------------------|
  I just can't hold it back no more. 

Guitar 1 (Distortion)
  D5                      D5                      A5                      A5
e|-----------------------|-----------------------|-----------------------|-----------------------|
B|-----------------------|-----------------------|-----------------------|-----------------------|
G|-7--7--7--7--7--7--7--7|-7--7--7--7--7--7--7--7|-----------------------|-----------------------|
D|-7--7--7--7--7--7--7--7|-7--7--7--7--7--7--7--7|-7--7--7--7--7--7--7--7|-7--7--7--7--7--7--7--7|
A|-5--5--5--5--5--5--5--5|-5--5--5--5--5--5--5--5|-7--7--7--7--7--7--7--7|-7--7--7--7--7--7--7--7|
E|-----------------------|-----------------------|-5--5--5--5--5--5--5--5|-5--5--5--5--5--5--5--5|
Guitar 2 (Distortion)
e|-----------------------|-----------------------|-----------------------|-----------------------|
B|-----------------------|-----------------------|-----------------------|-----------------------|
G|11-11-11-11-11-11-11-11|14-14-14-14-14-14-14-14|-9--9--9--9--9--9--9--9|14-14-14-14-14-14-14-14|
D|-x--x--x--x--x--x--x--x|-x--x--x--x--x--x--x--x|-x--x--x--x--x--x--x--x|-x--x--x--x--x--x--x--x|
A|-9--9--9--9--9--9--9--9|12-12-12-12-12-12-12-12|-7--7--7--7--7--7--7--7|12-12-12-12-12-12-12-12|
E|-----------------------|-----------------------|-----------------------|-----------------------|
  I just can't hold it back no more

Guitar 1 (Distortion)
  B5                      B5                      G5                      G5                   F#5
e|-----------------------|-----------------------|-----------------------|-----------------------|
B|-----------------------|-----------------------|-----------------------|-----------------------|
G|-4--4--4--4--4--4--4--4|-4--4--4--4--4--4--4--4|-----------------------|-----------------------|
D|-4--4--4--4--4--4--4--4|-4--4--4--4--4--4--4--4|-5--5--5--5--5--5--5--5|-5.----5.----5--5--5--4|
A|-2--2--2--2--2--2--2--2|-2--2--2--2--2--2--2--2|-5--5--5--5--5--5--5--5|-5.----5.----5--5--5--4|
E|-----------------------|-----------------------|-3--3--3--3--3--3--3--3|-3.----3.----3--3--3--2|
Guitar 2 (Distortion)
e|-----------------------|-----------------------|-----------------------|-----------------------|
B|-----------------------|-----------------------|-----------------------|-----------------------|
G|-7--7--7--7--7--7--7--7|-9--9--9--9-11-11-11-11|-7--7--7--7--7--7--7--7|-7.----7.----7--7--7--6|
D|-x--x--x--x--x--x--x--x|-x--x--x--x--x--x--x--x|-x--x--x--x--x--x--x--x|-x.----x.----x--x--x--x|
A|-5--5--5--5--5--5--5--5|-7--7--7--7--9--9--9--9|-5--5--5--5--5--5--5--5|-5.----5.----5--5--5--4|
E|-----------------------|-----------------------|-----------------------|-----------------------|
  I just can't hold it back no more. 

Guitar 1 (Distortion)
   G5      F#5 G5       G5 A5       G5 A5
e|-----------------------|-----------------------|
B|-----------------------|-----------------------|
G|-----------------------|-----------------------|
D|-5--------4--5--------5|-7--------5--7---------|
A|-5--------4--5--------5|-7--------5--7---------|
E|-3--------2--3--------3|-5--------3--5---------|
Guitar 2(Distortion)
e|-----------------------|-----------------------|
B|-----------------------|-----------------------|
G|-7--------6--7--------7|-9--------7--9---------|
D|-x--------x--x--------x|-x--------x--x---------|
A|-5--------4--5--------5|-7--------5--7---------|
E|-----------------------|-----------------------|


[Verse]
Guitar 1 - Ska upstrokes (Clean)
  Bm                      G                       Bm                      G 
e|----7-----7-----7-----7|----3-----3-----3-----3|----7-----7-----7-----7|----3-----3-----3-----3|
B|----7-----7-----7-----7|----3-----3-----3-----3|----7-----7-----7-----7|----3-----3-----3-----3|
G|----7-----7-----7-----7|----4-----4-----4-----4|----7-----7-----7-----7|----4-----4-----4-----4|
D|-----------------------|-----------------------|-----------------------|-----------------------|
A|-----------------------|-----------------------|-----------------------|-----------------------|
E|-----------------------|-----------------------|-----------------------|-----------------------|
  Everyone says let it go but you have never walked this road. A million miles just warming up

Guitar 1 - Ska upstrokes (Clean)                           (Distortion)
  Bm                      G                       G                       A5
e|----7-----7-----7-----7|----3-----3-----3-----3|----3-----3-----3-----3|-----------------------|
B|----7-----7-----7-----7|----3-----3-----3-----3|----3-----3-----3-----3|-----------------------|
G|----7-----7-----7-----7|----4-----4-----4-----4|----4-----4-----4-----4|-9--9--9--9------------|
D|-----------------------|-----------------------|-----------------------|-9--9--9--9-\\\\\\\\\\\|
A|-----------------------|-----------------------|-----------------------|-7--7--7--7 \pickslide\|
E|-----------------------|-----------------------|-----------------------|------------\\\\\\\\\\\|
    You can't tell me what to do when you ain't even broke the rules. A million miles just warming up


[Pre Chorus]
Guitar 1 (Distortion)
  D5                      D5                      A5                      A5
e|-----------------------|-----------------------|-----------------------|-----------------------|
B|-----------------------|-----------------------|-----------------------|-----------------------|
G|-7---------------------|-----------------------|-----------------------|-----------------------|
D|-7-----7--7--7--7--7--7|-7--7--7--7--7--7--7--7|-7---------------------|-----------------------|
A|-5-----5--5--5--5--5--5|-5--5--5--5--5--5--5--5|-7-----7--7--7--7--7--7|-7--7--7--7--7--7--7--7|
E|-----------------------|-----------------------|-5-----5--5--5--5--5--5|-5--5--5--5--5--5--5--5|
      PM¦-----------------------------------------¦     ¦----------------------------------------¦
  Where did my life go? Where did my life go?

Guitar 1 (Distortion)
  G5                      G5                      G5                      G5
e|-----------------------|-----------------------|-----------------------|----------------x--x--x|
B|-----------------------|-----------------------|-----------------------|----------------x--x--x|
G|-----------------------|-----------------------|-----------------------|----------------x--x--x|
D|-5--5-----5--5--5-----5|-5--5-----5--5--5-----5|-5-----------5---------|-5--------5-----x--x--x|
A|-5--5-----5--5--5-----5|-5--5-----5--5--5-----5|-5--5N-------5--5N-----|-5--5N----5-----x--x--x|
E|-3--3-----3--3--3-----3|-3--3-----3--3--3-----3|-3--3N-------3--3N-----|-3--3N----3-----x--x--x|
                                                   PM¦-------¦   ¦-------¦   ¦-----¦
Where did my life go?


[Chorus]
Guitar 1 (Distortion)
  D5                      D5                      A5                      A5
e|-----------------------|-----------------------|-----------------------|-----------------------|
B|-----------------------|-----------------------|-----------------------|-----------------------|
G|-7--7--7--7--7--7--7--7|-7--7--7--7--7--7--7--7|-----------------------|-----------------------|
D|-7--7--7--7--7--7--7--7|-7--7--7--7--7--7--7--7|-7--7--7--7--7--7--7--7|-7--7--7--7--7--7--7--7|
A|-5--5--5--5--5--5--5--5|-5--5--5--5--5--5--5--5|-7--7--7--7--7--7--7--7|-7--7--7--7--7--7--7--7|
E|-----------------------|-----------------------|-5--5--5--5--5--5--5--5|-5--5--5--5--5--5--5--5|
Guitar 2 (Distortion)
e|-----------------------|-----------------------|-----------------------|-----------------------|
B|-----------------------|-----------------------|-----------------------|-----------------------|
G|11-11-11-11-11-11-11-11|14-14-14-14-14-14-14-14|-9--9--9--9--9--9--9--9|14-14-14-14-14-14-14-14|
D|-x--x--x--x--x--x--x--x|-x--x--x--x--x--x--x--x|-x--x--x--x--x--x--x--x|-x--x--x--x--x--x--x--x|
A|-9--9--9--9--9--9--9--9|12-12-12-12-12-12-12-12|-7--7--7--7--7--7--7--7|12-12-12-12-12-12-12-12|
E|-----------------------|-----------------------|-----------------------|-----------------------|
  I just can't hold it back no more

Guitar 1 (Distortion)
  B5                      B5                      G5                      G5
e|-----------------------|-----------------------|-----------------------|-------------x--x--x--x|
B|-----------------------|-----------------------|-----------------------|-------------x--x--x--x|
G|-4--4--4--4--4--4--4--4|-4--4--4--4--4--4--4--4|-----------------------|-------------x--x--x--x|
D|-4--4--4--4--4--4--4--4|-4--4--4--4--4--4--4--4|-5--5--5--5--5--5--5--5|-5.----5.----x--x--x--x|
A|-2--2--2--2--2--2--2--2|-2--2--2--2--2--2--2--2|-5--5--5--5--5--5--5--5|-5.----5.----x--x--x--x|
E|-----------------------|-----------------------|-3--3--3--3--3--3--3--3|-3.----3.----x--x--x--x|
Guitar 2 (Distortion)
e|-----------------------|-----------------------|-----------------------|-------------x--x--x--x|
B|-----------------------|-----------------------|-----------------------|-------------x--x--x--x|
G|-7--7--7--7--7--7--7--7|-9--9--9--9-11-11-11-11|-7--7--7--7--7--7--7--7|-7.----7.----x--x--x--x|
D|-x--x--x--x--x--x--x--x|-x--x--x--x--x--x--x--x|-x--x--x--x--x--x--x--x|-x.----x.----x--x--x--x|
A|-5--5--5--5--5--5--5--5|-7--7--7--7--9--9--9--9|-5--5--5--5--5--5--5--5|-5.----5.----x--x--x--x|
E|-----------------------|-----------------------|-----------------------|-------------x--x--x--x|
  I just can't hold it back no more. 

Guitar 1 (Distortion)
  D5                      D5                      A5                      A5
e|-----------------------|-----------------------|-----------------------|-----------------------|
B|-----------------------|-----------------------|-----------------------|-----------------------|
G|-7--7--7--7--7--7--7--7|-7--7--7--7--7--7--7--7|-----------------------|-----------------------|
D|-7--7--7--7--7--7--7--7|-7--7--7--7--7--7--7--7|-7--7--7--7--7--7--7--7|-7--7--7--7--7--7--7--7|
A|-5--5--5--5--5--5--5--5|-5--5--5--5--5--5--5--5|-7--7--7--7--7--7--7--7|-7--7--7--7--7--7--7--7|
E|-----------------------|-----------------------|-5--5--5--5--5--5--5--5|-5--5--5--5--5--5--5--5|
Guitar 2 (Distortion)
e|-----------------------|-----------------------|-----------------------|-----------------------|
B|-----------------------|-----------------------|-----------------------|-----------------------|
G|11-11-11-11-11-11-11-11|14-14-14-14-14-14-14-14|-9--9--9--9--9--9--9--9|14-14-14-14-14-14-14-14|
D|-x--x--x--x--x--x--x--x|-x--x--x--x--x--x--x--x|-x--x--x--x--x--x--x--x|-x--x--x--x--x--x--x--x|
A|-9--9--9--9--9--9--9--9|12-12-12-12-12-12-12-12|-7--7--7--7--7--7--7--7|12-12-12-12-12-12-12-12|
E|-----------------------|-----------------------|-----------------------|-----------------------|
  I just can't hold it back no more

Guitar 1 (Distortion)
  B5                      B5                      G5                      G5
e|-----------------------|-----------------------|-----------------------|-----------------------|
B|-----------------------|-----------------------|-----------------------|-----------------------|
G|-4--4--4--4--4--4--4--4|-4--4--4--4--4--4--4--4|-----------------------|-----------------------|
D|-4--4--4--4--4--4--4--4|-4--4--4--4--4--4--4--4|-5---------------------|-----------------------|
A|-2--2--2--2--2--2--2--2|-2--2--2--2--2--2--2--2|-5--5--5--5--5--5--5--5|-5--5--5--5--5--5--5--5|
E|-----------------------|-----------------------|-3--3--3--3--3--3--3--3|-3--3--3--3--3--3--3--3|
                                            Gallop PM¦-------------------------------------------¦
Guitar 2 (Distortion)
e|-----------------------|-----------------------|-----------------------|-----------------------|
B|-----------------------|-----------------------|-----------------------|-----------------------|
G|-7--7--7--7--7--7--7--7|-9--9--9--9-11-11-11-11|-----------------------|-----------------------|
D|-x--x--x--x--x--x--x--x|-x--x--x--x--x--x--x--x|-5---------------------|-----------------------|
A|-5--5--5--5--5--5--5--5|-7--7--7--7--9--9--9--9|-5--5--5--5--5--5--5--5|-5--5--5--5--5--5--5--5|
E|-----------------------|-----------------------|-3--3--3--3--3--3--3--3|-3--3--3--3--3--3--3--3|
                                            Gallop PM¦-------------------------------------------¦
  I just can't hold it back no more. 


[Outro}
Guitar 1 (Distortion)
  D5                      D5                      A5                      A5
e|-----------------------|-----------------------|-----------------------|-----------------------|
B|-----------------------|-----------------------|-----------------------|-----------------------|
G|-7--7--7--7--7--7--7--7|-7--7--7--7--7--7--7--7|-----------------------|-----------------------|
D|-7--7--7--7--7--7--7--7|-7--7--7--7--7--7--7--7|-7--7--7--7--7--7--7--7|-7--7--7--7--7--7--7--7|
A|-5--5--5--5--5--5--5--5|-5--5--5--5--5--5--5--5|-7--7--7--7--7--7--7--7|-7--7--7--7--7--7--7--7|
E|-----------------------|-----------------------|-5--5--5--5--5--5--5--5|-5--5--5--5--5--5--5--5|
  Whoa                                            Whoa

Guitar 1 (Distortion)
  B5                      B5                      G5                      G5
e|-----------------------|-----------------------|-----------------------|-----------------------|
B|-----------------------|-----------------------|-----------------------|-----------------------|
G|-4--4--4--4--4--4--4--4|-4--4--4--4--4--4--4--4|-----------------------|-----------------------|
D|-4--4--4--4--4--4--4--4|-4--4--4--4--4--4--4--4|-5--5--5--5--5--5--5--5|-5--5--5--5--5--5--5--5|
A|-2--2--2--2--2--2--2--2|-2--2--2--2--2--2--2--2|-5--5--5--5--5--5--5--5|-5--5--5--5--5--5--5--5|
E|-----------------------|-----------------------|-3--3--3--3--3--3--3--3|-3--3--3--3--3--3--3--3|
  Whoa                                            ooooo

Guitar 1 (Distortion)
  D5                      D5                      A5                      A5
e|-----------------------|-----------------------|-----------------------|-----------------------|
B|-----------------------|-----------------------|-----------------------|-----------------------|
G|-7--7--7--7--7--7--7--7|-7--7--7--7--7--7--7--7|-----------------------|-----------------------|
D|-7--7--7--7--7--7--7--7|-7--7--7--7--7--7--7--7|-7--7--7--7--7--7--7--7|-7--7--7--7--7--7--7--7|
A|-5--5--5--5--5--5--5--5|-5--5--5--5--5--5--5--5|-7--7--7--7--7--7--7--7|-7--7--7--7--7--7--7--7|
E|-----------------------|-----------------------|-5--5--5--5--5--5--5--5|-5--5--5--5--5--5--5--5|
  Whoa                                            Whoa

Guitar 1 (Distortion)
  B5                      B5                      G5                      G5
e|-----------------------|-----------------------|-----------------------|-----------------------|
B|-----------------------|-----------------------|-----------------------|-----------------------|
G|-4--4--4--4--4--4--4--4|-4--4--4--4--4--4--4--4|-----------------------|-----------------------|
D|-4--4--4--4--4--4--4--4|-4--4--4--4--4--4--4--4|-5--5--5--5--5--5--5--5|-5.----5.----5--5--5---|
A|-2--2--2--2--2--2--2--2|-2--2--2--2--2--2--2--2|-5--5--5--5--5--5--5--5|-5.----5.----5--5--5---|
E|-----------------------|-----------------------|-3--3--3--3--3--3--3--3|-3.----3.----3--3--3---|
  Whoa                                            ooooo

Guitar 1 (Distortion)
  D5
e|-----------------------|
B|-----------------------|
G|-7\--------------------|
D|-7\--------------------|
A|-5\--------------------|
E|-----------------------|




************************************

| x   Dead note
| /   Slide up
| \   Slide down
| PM  Palm mute
| .   Staccato/Cut off
| N   Tremolo picking

************************************

            
            
Suggest correction
Creating personal tab
Creating personal tab
You can edit any tab online and save it as your Personal.

You can edit, replace or remove any tab part or add personal notes – all changes will be seen only by you.

Personal tabs can be accessed anytime from any device, even offline.
Learn more »
Give kudos to tab author, rate the tab!
1 2 3 4 5
comments
print report bad tab
guest
You may want to rate the tab now too:
select rating
Wanna post a correction for this tab? Suggest correction