Oops, an error
Loading. Please wait.

Nothing To Prove tab

version 2
version 2

Whole song

81 views 1 this week
no commentswrite comment
1 2 3 4 5
3 more votes to show rating
add to favorites
×
Save as Personal and add changes to this tab that will be seen only by you. Learn more ›
×
You can save this tab as Personal to edit and correct it or add notes. All changes will be seen only by you. Learn more »
launch autoscroll
font size
0
reset
how to read this tab
guitar tuner
edit
Autoscroll
slow
fast
+/-
esc
set tempo
stop
Difficulty
intermediate
Props to whoever got this started, but I think they missed a few key parts.

INTRO/BREAK:

|-------------------------|
|-------------------------|
|-4---6-------7-6-2-------|
|-4-2-6-7-7-7-7-6-2-2-2-2-|
|-2-2-4-7-7-7-5-4-0-2-2-2-|
|---0---5-5-5-------0-0-0-|

|-----------------|
|-----------------|
|-4---6-------7-6-|
|-4-2-6-7-7-7-7-6-|
|-2-2-4-7-7-7-5-4-|
|---0---5-5-5-----|

(both of these 2x)

VERSE #1:
Bass line: B  A  C# E  B  A  C#  F#
|-------------------------------------------------|
|-------------------------------------------------|
|-------------------------------------------------|
|-------------------------------------------------|
|-------------------------------------------------|
|-------------------------------------------------|
fly off the handle once again and now its too late
hear the door slam shut you're gone and now its so late

B           A                     C#                   E
|---------------------------------------------------|
|---------------------------------------------------|
|-4-4-4-4-4-4-4-4-4-4-4-4-4-4-4-4-4-4-4-4-4-4-4-4-4-|
|---------------------------------------------------|
|---------------------------------------------------|
|---------------------------------------------------|
i can still feel the sting of your hand across my face

B          A                C#            F#////////
|---------------------------------------------------|
|---------------------------------------------------|
|-4-4-4-4-4-4-4-4-4-4-4-4-4-4-4-4-4-4-4-4-4/6-------|
|---------------------------------------------4~~~~-|
|---------------------------------------------------|
|---------------------------------------------------|
again the last thing that i wanted was to hurt you


CHORUS:

|-------------------------|
|-------------------------|
|-9-8-4-------8-8-6-6-6-6-|
|-9-8-4-4-4-4-8-8-6-6-6-6-|
|-7-6-2-4-4-4-6-6-4-4-4-4-|
|-------2-2-2-------------|
still i'm sitting alone again
i feel i'm writing the same thing again
and if i want to i can just shutup
now i know that i've got

|-------------|
|-------------|
|-9(6)-9-9----|
|-9(6)-9-9-4-4|Ok this part is a pain because I'm positive that the melody
|-7(4)-7-7-4-4|is a C#, but I think the original tab was correct that the
|----------2-2|guitar plays an E, which sounds like shit, but...
nothing to prove to you

  A       E     B   (choose your own voicing)
|------------------------|
|------------------------|
|-14-14-149-9-9----------|
|-14-14-149-9-9-9-9-9----|
|-12-12-127-7-7-9-9-9----|
|----------------7-7-7---|
nothing to prove to you
nothing to prove to you
nothing to prove to you

|------------------------------|
|------------------------------|
|------------------------------|
|-4~~~~~~~~~~~~~~~~~~~~~~~~~~~~|
|-4~~~~~~~~~~~~~~~~~~~~~~~~~~~~|
|-2~~~~~~~~~~~~~~~~~~~~~~~~~~~~|
still i'm fighting cause there's

|---------------------|
|---------------------|
|---------------------|
|-7-------------------|
|-7-------------------|
|-5-------------------|
something to prove too

VERSE #2:
(I prefer root five voicings of the B and A, but its up to you)
|---------------------------------|
|---------------------------------|
|-----------------6-6-6-6/9-9-9-9-|
|-9-9-9-9-7-7-7-7-6-6-6-6/9-9-9-9-|
|-9-9-9-9-7-7-7-7-4-4-4-4/7-7-7-7-|
|-7-7-7-7-5-5-5-5-----------------|
i here your car drive in the lot its three this morning
where have you been what could i do your drunken I'm sorry

|---------------------------------|
|---------------------------------|
|-----------------6-6-6-6---------|
|-9-9-9-9-7-7-7-7-6-6-6-6-4-4-4-4-|
|-9-9-9-9-7-7-7-7-4-4-4-4-4-4-4-4-|
|-7-7-7-7-5-5-5-5---------2-2-2-2-|
i dont know how to feel or what to say how should i act
then we lay down i feel so numb i wish you'd kill me

(THEN CHORUS)
(BREAK)

VERSE #3:
Bass line:  B  A  C#  E | B  A  C#  F# |
|----------------------------------------------------|
|----------------------------------------------------|
|----------------------------------------------------|
|----------------------------------------------------|
|----------------------------------------------------|
|----------------------------------------------------|
fly off the handle once again and now its to late
hear the door slam shut youre gone and now its so late

|----------------------------------------------------|
|----------------------------------------------------|
|-----------------6-6-6-6/9-9-9-9--------------------|
|-9-9-9-9-7-7-7-7-6-6-6-6/9-9-9-9--------------------|
|-9-9-9-9-7-7-7-7-4-4-4-4/7-7-7-7--------------------|
|-7-7-7-7-5-5-5-5------------------------------------|
i can still feel the sting of your hand across my face

|----------------------------------------------------|
|----------------------------------------------------|
|-----------------6-6-6-6----------------------------|
|-9-9-9-9-7-7-7-7-6-6-6-6-4-4-4-4--------------------|
|-9-9-9-9-7-7-7-7-4-4-4-4-4-4-4-4--------------------|
|-7-7-7-7-5-5-5-5---------2-2-2-2--------------------|
again the last thing that i wanted was to

|----------------------------------------------------|
|----------------------------------------------------|
|----------------------------------------------------|
|-4-4-4-4-4-4-4-4-4-4-4-4-4-4-4-4-4-4-4-4-4-4-4-4-4--|
|-4-4-4-4-4-4-4-4-4-4-4-4-4-4-4-4-4-4-4-4-4-4-4-4-4--|
|-2-2-2-2-2-2-2-2-2-2-2-2-2-2-2-2-2-2-2-2-2-2-2-2-2--|
hurt you, yyyyyyyyyyyyeeeeeeeeeeeaaaaaaaahhhhhhhhhhh!!

(THEN CHORUS)

OUTRO:

|--------------|
|--------------|
|-4---6--------|
|-4-2-6-7-7----|
|-2-2-4-7-7----|
|---0---5-5----|

            
            
Suggest correction
Creating personal tab
Creating personal tab
You can edit any tab online and save it as your Personal.

You can edit, replace or remove any tab part or add personal notes – all changes will be seen only by you.

Personal tabs can be accessed anytime from any device, even offline.
Learn more »
Give kudos to tab author, rate the tab!
1 2 3 4 5
comments
print report bad tab
guest
Wanna post a correction for this tab? Suggest correction