Oops, an error
Loading. Please wait.

No Llores chords

version 2
version 2

Whole song

by Golem
17 views 1 this week
no commentswrite comment
1 2 3 4 5
3 more votes to show rating
add to favorites
×
Save as Personal and add changes to this tab that will be seen only by you. Learn more ›
×
You can save this tab as Personal to edit and correct it or add notes. All changes will be seen only by you. Learn more »
launch autoscroll
font size
0
reset
transpose
0
reset
simplify chords
display chords
guitar tuner
edit
Autoscroll
slow
fast
+/-
esc
set tempo
stop
Strumming
There is no strumming pattern for this song yet. and get +5 IQ
Hice esta partitura viendo al grupo en vivo muchas veces, y viendo
los videos de youtube, en lo personal creo que suena idéntico, pero
es necesario saber bien como tocar el rasgueo. Si saben hacerlo y
siguen bien las indicaciones les va a sonar excelente.

Dato: la mayoria de las canciones de golem se tocan poniendo un
cejillo en el primer espacio, en este caso no creo que sea necesario
porque suena bien así, pero para el que quiera probar aqui está el dato.

Intro:

e|-0-0-0-0-0--0-0--0--0-0--0-0-0-0---0-0-0-0-0--0-0--0--0-0--0-0-0-0--|
B|-0-0-0-0-0--0-0--0--0-0--0-0-0-0---0-0-0-0-0--0-0--0--0-0--0-0-0-0--|
G|-7-7-7-7-7--7-7--6--6-6--6/7-7-7---2-2-2-2-2--2-2--1--1-1--1-1-1-1--|x3
D|-0-0-0-0-0--0-0--0--0-0--0-0-0-0---0-0-0-0-0--0-0--0--0-0--0-0-0-0--|
A|-0-0-0-0-0--0-0--0--0-0--0-0-0-0---0-0-0-0-0--0-0--0--0-0--0-0-0-0--|
E|-7-7-7-7-7--7-7--7--7-7--7-7-7-7---2-2-2-2-2--2-2--2--2-2--2-2-2-2--|

Acordes: los nombres de los acordes son inventados, los puse solo
para que pudieran entender el orden de como se toca.

   Si1 Si2 Si3 Si4 Mi1 Mi2 Mi3 ReM MiM Fa#m Sim
e|-0---0---7---7---0---0---2---2---0---0----2---|
B|-0---0---0---0---0---0---0---3---0---0----3---|
G|-7---6---7---6---2---1---2---2---1---2----4---|
D|-0---0---0---0---0---0---0---0---2---4----4---|
A|-0---0---0---0---0---0---0---0---2---4----2---|
E|-7---7---7---7---2---2---2---0---0---0----2---|

Aclaraciones: cuando se tocan los acordes Si3, Si4 y Mi3, en el
fondo son los mismos acordes que se tocaban antes pero incluyendo
la primera cuerda. El hecho de tocar la primera cuerda es para dar
un efecto especial, suena muy bien, pero ojo, cuando toquen esos
acordes siempre denle prioridad a las cuatro cuerdas de arriba para
que siga sonando bien.


Estrofas:

B1  B2 E1   E2
   Olvídame me sienta mal
B1 B2  E1     E2        (acá se toca el intro una vez)
   Abrázame te extraño      te extraño

B3 B4   E3   E2
   Acuéstame en flores
B3   B4 E3   E2
   Desnúdate no llores

Coro:

D    E 
   No llores
F#m  E 
   No llores
Bm   E 
   No llores

Se repite el intro una vez

B3   B4 E3   E2
   Perdoname no puedo mas
B3  B4 E3   E2
   Escapate no llores

Coro:

D    E 
   No llores
F#m  E 
   No llores
Bm   E 
   No llores
F#m  E 
   No llores
Bm   E          D  E 
   No llores solo podré
     F#m E 
Solo podré
     F#m E 
Solo podré

            
            
Suggest correction
Creating personal tab
Creating personal tab
You can edit any tab online and save it as your Personal.

You can edit, replace or remove any tab part or add personal notes – all changes will be seen only by you.

Personal tabs can be accessed anytime from any device, even offline.
Learn more »
Give kudos to tab author, rate the tab!
1 2 3 4 5
comments
print report bad tab
guest
Wanna post a correction for this tab? Suggest correction