Oops, an error
Loading. Please wait.

Make No Sound tab

version 1
version 1

Whole song

Interactive

by Gomez
13,086 views 3 this week
4 commentsread comments
1 2 3 4 5
x 7
add to favorites
×
Save as Personal and add changes to this tab that will be seen only by you. Learn more ›
×
You can save this tab as Personal to edit and correct it or add notes. All changes will be seen only by you. Learn more »
launch autoscroll
font size
0
reset
how to read this tab
guitar tuner
edit
Autoscroll
slow
fast
+/-
esc
set tempo
stop
Gomez , Make no sound
Mike.McConnell@noemail.com
=============
Make No Sound
=============
By Mike McConnell

-----
Notes
-----

Performed on a steel stringed acoustic guitar in normal tuning.
Play using your fingers to pick and pluck the strings very hard.
The verses have a staccato effect - none of the notes are left
to ring. This can be achieved by releasing your fretting hand pressure
quickly after you have struck each chord, and muting the strings.
The chorus is very quiet and gentle in comparison.

-------
Verse 1
-------
   ________________________________________________________________
  / x4
1|-----5---x---0-------2---x---0---|---1-------0-------------------|
2|-----0---x---0-------0---x---0---|---0---------------3-------0---|
3|---------------------------------|-------------------------------|
4|---------------------------------|-------------------------------|
5|---------------------------------|-------------------------------|
6|-7---------------4---------------3-------------------------------|
   1   +   2   +   3   +   4   +   1   +   2   +   3   +   4   +

  ________________________________________________________________
                                                                  \
1|-----5---x---0-------2---x---0---|-------------------------------|
2|-----0---x---0-------0---x---0---|-------------------------------|
3|---------------------------------|-------------------------------|
4|---------------------------------|-------------------------------|
5|---------------------------------|-------------------------------|
6|-7---------------4---------------3-------------------------------|
   1   +   2   +   3   +   4   +   1   +   2   +   3   +   4   +

------
Chorus
------

  (0:41), (1:21)

1|---------------------------------|-------------------------------|
2|-------------4-------4-----------|-----------2-------2-----------|
3|---------4-------------------4---|-------2-------------------2---|
4|-----4---------------------------|---2---------------------------|
5|-2---------------2-------2-------0---------------0-------0-------|
6|---------------------------------|-------------------------------|
   1   +   2   +   3   +   4   +   1   +   2   +   3   +   4   +

1|---------------------------------|-------------------------------|
2|---------------------------------|-------------------------------|
3|-------------4-------4-----------|-----------3-------------------|
4|---------5-------------------5---|-------4-----------4-----------|
5|-----5---------------------------|---4-----------------------4---|
6|-3---------------3-------3-------2---------------2-------2-------|
   1   +   2   +   3   +   4   +   1   +   2   +   3   +   4   +

1|---------------------------------|-------------------------------|
2|-------------4-------4-----------|-----------2-------2-----------|
3|---------4-------------------4---|-------2-------------------2---|
4|-----4---------------------------|---2---------------------------|
5|-2---------------2-------2-------0---------------0-------0-------|
6|---------------------------------|-------------------------------|
   1   +   2   +   3   +   4   +   1   +   2   +   3   +   4   +

1|---------------------------------|---------------2-------x-------|
2|---------------------------------|---------------2-------x-------|
3|-------------4-------4-----------|-----------3-------------------|
4|---------5-------------------5---|-------4-----------------------|
5|-----5---------------------------|---4---------------------------|
6|-3---------------3-------3-------2-------------------------------|
   1   +   2   +   3   +   4   +   1   +   2   +   3   +   4   +

-------
Verse 2
-------

(1:01)

Play the first verse riff twice instead of four times.

------
Chorus
------

Repeat the first chorus.


            
            
Suggest correction
Creating personal tab
Creating personal tab
You can edit any tab online and save it as your Personal.

You can edit, replace or remove any tab part or add personal notes – all changes will be seen only by you.

Personal tabs can be accessed anytime from any device, even offline.
Learn more »
comments
print report bad tab
4 comments total. Showing first comments.
0 reply
itailahat 10 Jan 19, 2007 10:31 AM

i think it sould be like this:
1|-----5---x---0------!4!--x---0---|---1-------0-------------------|
2|-----0---x---0-------0---x---0---|---0---------------3-------0---|
3|---------------------------------|-------------------------------|
4|---------------------------------|-------------------------------|
5|---------------------------------|-------------------------------|
6|-7---------------4---------------3-------------------------------|
1 + 2 + 3 + 4 + 1 + 2 + 3 + 4 +

+1 reply
Icabobster 52 Mar 06, 2007 08:25 AM

this is not accurate. it should be:
e---5-2---2-1---1-0-------5-2---2-1---|
B---0-0---0-0---0-0-3-0---0-0---0-0---|
G-------------------------------------|
D-------------------------------------|
A-------------------------------------|
E-7-----4-----3---------7-----4-----3-|

0 reply
Meloncoly 10 Apr 18, 2007 07:04 PM

this tab is shit

guest
Wanna post a correction for this tab? Suggest correction