Oops, an error
Loading. Please wait.

See The World tab

version 2
version 2

Whole song

by Gomez
8,614 views 6 this week
2 commentsread comments
1 2 3 4 5
x 3
add to favorites
×
Save as Personal and add changes to this tab that will be seen only by you. Learn more ›
×
You can save this tab as Personal to edit and correct it or add notes. All changes will be seen only by you. Learn more »
launch autoscroll
font size
0
reset
how to read this tab
guitar tuner
edit
Autoscroll
slow
fast
+/-
esc
set tempo
stop
So this is with the capo on the 2nd fret (how it is supposed to be played), and there's
a part during the chorus (and after it the first time) that I have yet to figure out.
will be coming up soon. Another note: I'm sure the guitar (banjo?) that plays the 
has four notes per set, but I'm too lazy right now. I'll fix the other stuff later, but
what I've got so far. Just listen to the song for the rhythm and you'll be all set. Enjoy.


Intro/Verse
e----2--------------2--------0---0---------------0-------|
B----3-3---3-----3---------3-----0-3---3------3----3---3-|
G--------2---0h2------0h2------------4---2h4---------4---|
D--0---------------------------2-------------------------|
A--------------------------------------------------------|
E--------------------------------------------------------|

Pre-Chorus
e----------------------------------------------------|
B----------------------------------------------------|
G--------------------------------------4---4---6---6-|
D---4---4---5---5------5---5---5---5--5---5---5---5--|
A--5---5---5---5--x2--5---5---5---5------------------|
E-5---5---3---3------3---3---0---0---3---3---3---3---|

Chorus
e---2----0----2----0----2----0----0----0-|
B---3----0----3----0----3----0----2----0-|
G---2----0----2----0----2----0----0----0-|
D-0---------0---------0------------------|
A----------------------------------------|
E------3---------3---------3----0----0---|

-Icabobster

            
            
Suggest correction
Creating personal tab
Creating personal tab
You can edit any tab online and save it as your Personal.

You can edit, replace or remove any tab part or add personal notes – all changes will be seen only by you.

Personal tabs can be accessed anytime from any device, even offline.
Learn more »
Give kudos to tab author, rate the tab!
1 2 3 4 5
comments
print report bad tab
2 comments total.
-1 reply
uniyh 587 Mar 18, 2007 01:20 PM

its too low

0 reply
LG_thing 21 Jun 20, 2011 01:44 AM

Not if you stick the capo on it isn't.

guest
You may want to rate the tab now too:
select rating
Wanna post a correction for this tab? Suggest correction