Oops, an error
Loading. Please wait.

Broadway chords

version 4
version 4

Whole song

Interactive

845 views 3 this week
1 commentread comment
1 2 3 4 5
3 more votes to show rating
add to favorites
×
Save as Personal and add changes to this tab that will be seen only by you. Learn more ›
×
You can save this tab as Personal to edit and correct it or add notes. All changes will be seen only by you. Learn more »
launch autoscroll
font size
0
reset
transpose
0
reset
simplify chords
display chords
guitar tuner
edit
Autoscroll
slow
fast
+/-
esc
set tempo
stop
Author
Strumming
There is no strumming pattern for this song yet. and get +5 IQ
Tabbed by: bpez96
Tuning: Half-step down D#G#C#F#A#D#
/=slide
H=hammer-on
~=slight bend

Play Am7 like this:
eb|--3--|
Bb|--1--|
Gb|--2--|
Db|--2--|
Ab|--0--|
Eb|--x--|

Intro: C Am [x2] 
C Am F C G

Riff: 
eb|-------------------------------------------------------|
Bb|------------8--------------5---------------------------|
Gb|------4/5----------7--5-7----7-5----4/5-7--------------|
Db|----------------------------------7-------7-5----------|
Ab|-------------------------------------------------------|
Eb|-------------------------------------------------------|

First Chorus: 
Broadway is Dark Tonight
eb|---------0---------0----------0-----0---|
Bb|-----------1---------1----------1-----1-|
Gb|------0---------0----------0------0-----|
Db|----------------------------------------|
Ab|----0-----------------------------------|
Eb|-------------3----------1---------------|
A little bit weaker than you used to be
eb|--------0---------0---------0----------0-----|
Bb|----------1---------1----------------1---1---|
Gb|-----0---------0---------0---------0---------|
Db|---------------------------------------------|
Ab|---3-----------------------------3-----------|
Eb|-------------3---------1---------------------|
Broadway is Dark Tonight
eb|---------0---------0----------0------0-----0-----0-----0---|
Bb|-----------1---------1----------1------1-----1-----1-----1-|
Gb|------0---------0----------0-------0-----0-----0-----0-----|
Db|-----------------------------------------------------------|
Ab|----0------------------------------------------------------|
Eb|-------------3----------1----------------------------------|
See the young man sitting in the old mans bar
eb|--------0---------0---------0---------0------|
Bb|----------1---------1---------1----------1---|
Gb|-----0---------0---------0---------0---------|
Db|---------------------------------------------|
Ab|---3-----------------------------3-----------|
Eb|-------------3---------1---------------------|
Waiting for his turn to die
eb|---------0----------0---------|
Bb|-----------1-----------1------|
Gb|-----------------0------------|
Db|-----2------------------------|
Ab|---0----------2---------------|
Eb|------------------------------|

C Am [x2]

Second Riff:
eb|-------------------------------------------------------|
Bb|-----5/6-8--8----------------10-8----------------------|
Gb|-----------------------------------10-9~---------------|
Db|-------------------------------------------------------|
Ab|-------------------------------------------------------|
Eb|-------------------------------------------------------| 

Verse:
C            Am 
The cowboy kills the rockstar, 
C           Am 
and Friday night's gone too far 
C            Am                   F 
The dim light hides the years on all the faded girls 
C            Am 
Forgotten but not gone, 
C           Am
you drink it off your mind 
C            Am 
You talk about the world 
          F            C           G 
like it's some place that you've been 
               Am7
You see you'd love to run home, but you know you ain't got one, 
                F
'cause you're living in a world that you're best forgotten 
        G           F
'round here

Chorus: 
Am          G        F 
Broadway is dark tonight 
C             G                F     C 
A little bit weaker than you used to be 
Am          G        F 
Broadway is dark tonight 
          C          G            F         C 
See the young man sitting in the old man's bar, 
Dm                F 
waiting for his turn to die 

C  Am [x2] 

Third Riff:
eb|-----------------------------|
Bb|---5/8-8-8------6--5--3--5---|
Gb|-----------------------------|
Db|-----------------------------|
Ab|-----------------------------|
Eb|-----------------------------|

eb|--------------------------------|
Bb|---5/8-8-8------6--5--3--5-3----|
Gb|------------------------------5-|
Db|--------------------------------|
Ab|--------------------------------|
Eb|--------------------------------|

Verse 2:
C              Am
You choke down all your anger,
C             Am
forget your only son
C               Am             F
You pray to statues when you sober up for fun
C            Am
Your anger don't impress me,
C                 Am
the world slapped in your face
C          Am                    F        C      G
It always rains like hell on the Losers' Day parade
               Am7
You see you'd love to run home, but you know you ain't got one, 
                F
'cause you're living in a world that you're best forgotten 
            Am7
when you're thinking of a joke, ain't nobody's gonna listen
        F
to the one small point
                                    G                 F
I know they've been missing 'round here

Chorus:
Am          G        F 
Broadway is dark tonight 
C             G                F     C 
A little bit weaker than you used to be 
Am          G        F 
Broadway is dark tonight 
          C          G            F         C 
See the young man sitting in the old man's bar, 
Dm                F 
waiting for his turn to die 

Solo:
eb|--------------------------------|
Bb|-----5--3--5--6--5--3--5--3-----|
Gb|--5--------------------------5--|
Db|--------------------------------|
Ab|--------------------------------|
Eb|--------------------------------|

eb|--------------------------------|
Bb|--5--3--5--6--5--3--5--3--------|
Gb|--------------------------------|
Db|--------------------------------|
Ab|--------------------------------|
Eb|--------------------------------|

eb|-----------------------------------|
Bb|--6-5------------------------------|
Gb|-------7--7---5--------------5--7--|
Db|-----------------7--5--7-----------|
Ab|-----------------------------------|
Eb|-----------------------------------|

eb|----------------------------------|
Bb|--6/5-------5--6--8-10-12-14-14~--|
Gb|-------7----------7-10-12-15-15~--|
Db|----------------------------------|
Ab|----------------------------------|
Eb|----------------------------------| 

               Am7
You see you'd love to run home, but you know you ain't got one, 
                F
'cause you're living in a world that you're best forgotten 
            Am7
when you're thinking of a joke, ain't nobody's gonna listen
        F
to the one small point
                                   G                 F
I know they've been missing 'round here
        G   F
'round here
G   F

One last riff:
eb|----------------------------------|
Bb|-----------------------7--7-5-----|
Gb|----------------5----7-7--7-5-----|
Db|-----------5-7----------------7-5-|
Ab|-----3-5\7------------------------|
Eb|-3-5------------------------------|

Chorus:
Am          G        F 
Broadway is dark tonight 
C             G                F     C 
A little bit weaker than you used to be 
Am          G        F 
Broadway is dark tonight 
          C          G            F         C 
See the young man sitting in the old man's bar, 
Dm                F 
waiting for his turn to die     

            
            
Suggest correction
Creating personal tab
Creating personal tab
You can edit any tab online and save it as your Personal.

You can edit, replace or remove any tab part or add personal notes – all changes will be seen only by you.

Personal tabs can be accessed anytime from any device, even offline.
Learn more »
Give kudos to tab author, rate the tab!
1 2 3 4 5
comments
print report bad tab
1 comment total.
0 reply
bpez96 154 Jul 16, 2013 08:58 AM

Also, play the Am7 like the normal Am chord with a fourth finger on the 3rd fret of the high e string (Am/G)

guest
You may want to rate the tab now too:
select rating
Wanna post a correction for this tab? Suggest correction