Oops, an error
Loading. Please wait.
116,661 views 198 this week
16 commentsread comments
1 2 3 4 5
x 13
add to favorites
×
Save as Personal and add changes to this tab that will be seen only by you. Learn more ›
×
You can save this tab as Personal to edit and correct it or add notes. All changes will be seen only by you. Learn more »
launch autoscroll
font size
0
reset
how to read this tab
guitar tuner
backing track
0:00
0:00
edit
Autoscroll
slow
fast
+/-
esc
set tempo
stop
Author
Unregistered
Tuning:

1st -> E
2nd -> E
3rd -> A
4th -> E
5th -> A
6th -> D

[Intro]

Repeat 2x (Part I)

E|-0--//--0--//---0--//--0--//--0---//--------------------------0--//---------------------------------------0|
E|-0--//--0--//---0--//--0--//--0---//--------------------------0--//---------------------------------------0|
A|-0--//--0--//---0--//--0--//--0---//------0-----0-----0-------0--//---0-----0-----0---0---0---0---0---0---0|
E|-0--//--0--//---0--//--0--//--0---//------0h7---7/9---9/12---12--//---0h7---7h9---9---7---9---7---9---7---0|
A|----//-----//---5--//-----//------//---0--0-----0-----0-------0--//---0-----0-----0---0---0---0---0---0---0|
D|-7--//--6--//------//--4--//--2---//---0-------------------------------------------------------------------|

(Part I, same as Intro) Repeat 3x with lyrics ->

      Even though the moment passed me by I still can't turn away
      'Cause all the dreams you never thought you'd lose, got tossed along the way
      Letters that you never meant to send,  get lost or thrown away

E|-0--//--0--//---0--//--0--//--0---//--------------------------0--//---------------------------------------0|
E|-0--//--0--//---0--//--0--//--0---//--------------------------0--//---------------------------------------0|
A|-0--//--0--//---0--//--0--//--0---//------0-----0-----0-------0--//---0-----0-----0---0---0---0---0---0---0|
E|-0--//--0--//---0--//--0--//--0---//------0h7---7/9---9/12---12--//---0h7---7h9---9---7---9---7---9---7---0|
A|----//-----//---5--//-----//------//---0--0-----0-----0-------0--//---0-----0-----0---0---0---0---0---0---0|
D|-7--//--6--//------//--4--//--2---//---0-------------------------------------------------------------------|

(Part II)
Now we're grown-up orphans that never knew their names. We don't belong to no one, that's a shame

E|-------0--//-------------0---//-------0---//------0---//--------0---//-----------0---//-----0---//--|
E|-------0--//-------------0---//-------0---//------0---//--------0---//-----------0---//-----0---//--|
A|-------0--//-------------0---//-------0---//------0---//--------0---//-----------0---//-----0---//--|
E|-------0--//-------------0---//-------0---//------0---//--------0---//-----------0---//-----5---//--|
A|--4----4--//---------2---2---//---5---5---//------0---//----4---4---//-------2---2---//-----5---//--|
D|--4----4--//---------2---2---//---0---0---//----------//----4---4---//-------2---2---//---------//--|


You could hide be-side me,       maybe for a while,   and I won't tell    no one your     name.  I won't 
your

E|-------0--//-----------0--//-------0---//-0---//---------0---//-------0---//---0---------------------|
E|-------0--//-----------0--//-------0---//-0---//---------0---//-------0---//---0---------------------|
A|-------0--//-----------0--//-------0---//-0---//---------0---//-------0---//---0---------------------|
E|-------0--//-----------0--//-------0---//-0---//---------0---//-------0---//---0---------------------|
A|--4----4--//-------2---2--//---5---5---//-0---//-----4---4---//---2---2---//---12--------------------|
D|--4----4--//-------2---2--//---0---0---//-----//-----4---4---//---2---2---//-------------------------|

Name.

E|-0--//--0--//---0--//--0--//--0---//--------------------------0--//--------------------------------------0-|
E|-0--//--0--//---0--//--0--//--0---//--------------------------0--//--------------------------------------0-|
A|-0--//--0--//---0--//--0--//--0---//------0-----0-----0-------0--//---0-----0-----0---0---0---0---0---0--0-|
E|-0--//--0--//---0--//--0--//--0---//------0h7---7/9---9/12---12--//---0h7---7h9---9---7---9---7---9---7--0-|
A|----//-----//---5--//-----//------//---0--0-----0-----0-------0--//---0-----0-----0---0---0---0---0---0--0-|
D|-7--//--6--//------//--4--//--2---//---0-------------------------------------------------------------------|

Scars are souvenirs ...

Name - Goo Goo Dolls

Even though the moment passed me by
I still can't turn away
'Cause all the dreams you never thought you'd lose
Got tossed along the way
And letters that you never meant to send
Get lost or thrown away

And now we're grown up orphans
That never knew their names
We don't belong to no one
That's a shame

You could hide beside me
Maybe for a while
And I won't tell no one your name
I won't tell em' your name

Scars are souvenirs you never lose
The past is never far
Did you lose yourself somewhere out there
Did you get to be a star
And don't it make you sad to know that life
Is more than who we are

We grew up way too fast
Now there's nothing to believe
And Reruns all become our history
A tired song keeps playing on a tired radio
And I won't tell no one your name
And I won't tell em' your name
I won't tell em' your name
Mmm, mmm, mmm,

I won't tell em' your name Ow!

I think about you all the time
But I don't need the same
It's lonely where you are come back down,
And I won't tell em your name





************************************

| /  Slide up
| h  Hammer-on
| // means multiple strums/picking

************************************

            
            
Suggest correction
Creating personal tab
Creating personal tab
You can edit any tab online and save it as your Personal.

You can edit, replace or remove any tab part or add personal notes – all changes will be seen only by you.

Personal tabs can be accessed anytime from any device, even offline.
Learn more »
comments
print report bad tab
16 comments total. Showing first comments.
-1 reply
bmadden 10 Jun 14, 2004 08:00 PM

If you use Drop "D" tuning for Name its identical to the song!! Try it.

0 reply
flyingjo21 608 Mar 15, 2007 01:03 AM

I tried drop D tuning, it's not identical - the tuning on this tab is much more accurate. Maybe try DADAAD?

-1 reply
JohnRzeznikFan 52 Jun 17, 2007 05:50 AM

The tuning for this song is EAEAEE, not DAEAEE, and what the hell! DADAAD? I play a lot of songs in this tuning, and Name is not played in this tuning. EAEAEE is the 100% correct way to tune your guitar for this song. I read an article where Johnny said what the tuning was, and it is EAEAEE.

guest
Wanna post a correction for this tab? Suggest correction