Oops, an error
Loading. Please wait.

Real chords

version 1
version 1

Whole song

Interactive

2,413 views 3 this week
no commentswrite comment
1 2 3 4 5
2 more votes to show rating
add to favorites
×
Save as Personal and add changes to this tab that will be seen only by you. Learn more ›
×
You can save this tab as Personal to edit and correct it or add notes. All changes will be seen only by you. Learn more »
launch autoscroll
font size
0
reset
transpose
0
reset
simplify chords
display chords
guitar tuner
edit
Autoscroll
slow
fast
+/-
esc
set tempo
stop
Author
Strumming
There is no strumming pattern for this song yet. and get +5 IQ
-------------------------------------------------------------------------------
                            REAL - The Goo Goo Dolls
-------------------------------------------------------------------------------

Tabbed by: Rafael Del Valle F.
Email: ji-rafa@hotmail.com

Tuning: Standard

Chords Used:

   Bm     G      D      Dsus2  Bm7    Dadd9  A      Asus4
e|-2------3------2------0------2------2------0------0------|
B|-3------3------3------3------3------3------2------3------|
G|-4------0------2------2------2------2------2------2------|
D|-4------0------0------2------4------2------2------2------|
A|-2------2--------------------2------0------0------0------|
E|--------3------------------------------------------------|




Intro
=====

Bm     G


Verse 1
=======

          Bm                 G
You read the news, it turns you inside out
  
    D         Dsus2             G
And everybody feels the same as you
              
             Bm               G
In uncertain times, uncertain rules apply

              D             Dsus2    G
Caught in the blind spot of mirrored love



Chorus 1
========
              
D            Dadd9
Can you feel real like you are?
   
        Bm                 Bm7  A               Asus4
Can you feel alive the way I    feel you now?

        D
And the biggest chance that we can take

   Dadd9
Is so often wide awake

Bm                  Bm7 A            Asus4
Hold me now   So we can feel alive

  Bm
Tonight



Verse 2
=======

          G
I need to feel you there
   
          D    Dsus2     G   
I want to know where I belong

                Bm   
And I felt the sting

               G
The sting of corrosion

         D             Dsus2    G
I need a safe place to close my eyes


              
Chorus 2
========
              
D            Dadd9
Can you feel real like you are?
   
        Bm                 Bm7  A               Asus4
Can you feel alive the way I    feel you now?

        D
And the biggest chance that we can take

   Dadd9
Is so often wide awake

Bm                  Bm7 A            Asus4
Hold me now   So we can feel alive

  Bm
Tonight



Verse 3
=======

            G
Oh, we were so lost
   
    D                 Dsus2
And there was so much more

               G
Than you could bear

    Bm   
And I was cold in my defeat

G
You're alone and incomplete

         D           Dsus2          G
When the sound could break down the walls



Solo
====
           
   
You can play the same chords as chorus:
D       Dadd9      Bm Bm7     A Asus4
D       Dadd9      Bm Bm7     A Asus4 

Or else, if you're jammin' with an acoustic, you can play this:
(In this tab the base chords gives you the time,
listen to the song and will be easy to find the accurate rythm)

    D
e|--2-----2--2-----2-----------2-----2-----2--------------------------|
B|--3--x--3--2--x--2-----------3--x--2--x--2--------------------------|
G|--2--x--2--2--x--2--2--2--2--2--x--2--x--2--2--2--------------------|
D|--0--x--0--0--x--0--0--0--0--0--x--0--x--0--0--0--------------------|
A|--------------------0--0--0-----------------0--0--------------------|
E|--------------------------------------------------------------------|

    Dadd9
e|--2-----2--2-----2-----------2-----2-----2--------------------------|
B|--3--x--3--2--x--2-----------3--x--2--x--2--------------------------|
G|--2--x--2--2--x--2--2--2--2--2--x--2--x--2--2--2--------------------|
D|--2--x--2--2--x--2--2--2--2--2--x--2--x--2--2--2--------------------|
A|--------------------0--0--0-----------------0--0--------------------|
E|--------------------------------------------------------------------|

    Bm
e|--3--------2--------0--------2--------3-----3-----------------------|
B|--3--3--3--3--3--3--3--3--3--3--3--3--2--3--2--3--------------------|
G|--4--4--4--4--4--4--4--4--4--4--4--4--4--4--4--4--------------------|
D|--4--4--4--4--4--4--4--4--4--4--4--4--4--4--4--4--------------------|
A|--------------------------------------------------------------------|
E|--------------------------------------------------------------------|
E|--------------------------------------------------------------------|

    Asus4 (on 5th fret)
e|--5--------555--------555--------------5--5--5--5--5--5--5--5-------|
B|--5--------555--------555--------------5--5--5--5--5--5--5--5-------|
G|--7--7--7--777--7--7--777--7--7--7--7--7--7--7--7--7--7--7--7-------|
D|--7--7--7-------7--7-------7--7--7--7-------------------------------|
A|-----5--5-------5--5-------5--5--5--5-------------------------------|
E|--------------------------------------------------------------------|
E|--------------------------------------------------------------------| quite easy! =)



Chorus 3
========
              
D            Dadd9
Can you feel real like you are?
   
        Bm                 Bm7  A               Asus4
Can you feel alive the way I    feel you now?

        D
And the biggest chance that we can take

   Dadd9
Is so often wide awake

Bm                  Bm7 A            Asus4
Hold me now   So we can feel alive

  Bm
Tonight



 
Any comments, suggestions or more goo goo dolls in standard tunning, write me to 
ji-rafa@hotmail.com

                                               ...And Remember "Life Is Good"
                                                                   Steve Vai

            
            
Suggest correction
Creating personal tab
Creating personal tab
You can edit any tab online and save it as your Personal.

You can edit, replace or remove any tab part or add personal notes – all changes will be seen only by you.

Personal tabs can be accessed anytime from any device, even offline.
Learn more »
Give kudos to tab author, rate the tab!
1 2 3 4 5
comments
print report bad tab
guest
You may want to rate the tab now too:
select rating
Wanna post a correction for this tab? Suggest correction