Oops, an error
Loading. Please wait.

Stay With You bass

version 2
version 2

Whole song

1,206 views 1 this week
no commentswrite comment
1 2 3 4 5
1 last vote to show rating
add to favorites
×
Save as Personal and add changes to this tab that will be seen only by you. Learn more ›
×
You can save this tab as Personal to edit and correct it or add notes. All changes will be seen only by you. Learn more »
launch autoscroll
font size
0
reset
guitar tuner
edit
Autoscroll
slow
fast
+/-
esc
set tempo
stop
Author
Difficulty
Band: Goo Goo Dolls
Song: Stay With You
Album: Let Love In (2006)
Tuning: EADG

I've been looking around for the tabs for this song, and those who I found was not 100%
so I decided to listen to the song, and look at those tabs that I found, and fill in the
that was not correct.. So here the result, I think this is at least 95% correct.. All 
have to do is to listen to the song to get the right timing...! Enjoy!

Goo Goo Dolls - Stay With You (Bass)

Intro: (00:00)
G|----------------|----------------|----------------|----------------|
D|----------------|----------------|----------------|----------------|
A|-3-3-3-3-3-3-3-3|----------------|-0-0-0-0-0-0-0-0|----------------| x2
E|----------------|-3-3-3-3-3-3-3-3|----------------|-1--1-1--1-1-1-1|

G|----------------|----------------|----------------|----------------|
D|----------------|----------------|----------------|----------------|
A|-0--0-0--0-0-0--|----------------|----------------|----------------|
E|----------------|-3--3-3--3-3-3-3|-1-1-1-1-1-1-1-1|-1-1-1-1-1-1-1-1|

Verse 1: (00:20)
G|-------|-------|------|-------|-------|-------|-------|-------|
D|-------|-------|------|-------|-------|-------|-------|-------|
A|-0r----|-------|------|-------|-0r----|-------|-------|-------| x2
E|-------|-------|-1r---|-------|-------|-------|-3r----|-------|

Chorus: (00:48)
G|----------------|----------------|----------------|----------------|
D|----------------|----------------|----------------|----------------|
A|-3-3-3-3-3-3-3-3|----------------|-0-0-0-0-0-0-0-0|----------------| x3
E|----------------|-3-3-3-3-3-3-3-3|----------------|-1--1-1--1-1-1-1|

G|----------------|----------------|----------------|----------------|
D|----------------|----------------|----------------|----------------|
A|-0--0-0--0-0-0--|----------------|----------------|----------------|
E|----------------|-3--3-3--3-3-3-3|-1-1-1-1-1-1-1-1|-1-1-1-1-1-1-1-1|

Verse 2: (01:15)
G|-------|-------|------|-------|-------|-------|-------|-------|
D|-------|-------|------|-------|-------|-------|-------|-------|
A|-0r----|-------|------|-------|-0r----|-------|-------|-------| x2
E|-------|-------|-1r---|-------|-------|-------|-3r----|-------|

Chorus: (01:43)
G|----------------|----------------|----------------|----------------|
D|----------------|----------------|----------------|----------------|
A|-3-3-3-3-3-3-3-3|----------------|-0-0-0-0-0-0-0-0|----------------| x3
E|----------------|-3-3-3-3-3-3-3-3|----------------|-1--1-1--1-1-1-1|

G|----------------|----------------|----------------|----------------|
D|----------------|----------------|----------------|----------------|
A|-0--0-0--0-0-0--|----------------|----------------|----------------|
E|----------------|-3--3-3--3-3-3-3|-1-1-1-1-1-1-1-1|-1-1-1-1-1-1-1-1|

Bridge part 1: (02:11)
G|-----|----|-----|-----|----|----|-----|----|
D|-----|----|-----|-----|----|----|-----|----|
A|-----|----|-----|-----|----|----|-----|----|
E|-0r--|----|-1r--|-----|-0r-|----|-1r--|----|
                                            (02:37)
G|----------------|----------------|----------------|
D|----------------|----------------|----------------|
A|-0-0-0-0-0-0-0-0|----------------|-15----/3-3-----|
E|----------------|-3-3-3-3-3-3-3-3|----------------|

Bridge part 2: (02:45)
G|----------------|----------------|----------------|----------------|
D|----------------|----------------|----------------|----------------|
A|-0-0-0-0-0-0-0-0|-0-0-0-0-0-0-0-0|----------------|----------------|
E|----------------|----------------|-3-3-3-3-3-3-3-3|-3-3-3-3-3-3-3-3|

G|----------------|----------------|----------------|----------------|
D|----------------|----------------|----------------|----------------|
A|----------------|----------------|----------------|----------------|
E|-1-1-1-1-1-1-1-1|-1-1-1-1-1-1-1-1|-1-1-1-1-1-1-1-1|-1-1-1-1-1-1-1-1|

G|----------------|----------------|----------------|----------------|
D|----------------|----------------|----------------|----------------|
A|-3-3-3-3-3-3-3-3|----------------|-0-0-0-0-0-0-0-0|----------------| x2
E|----------------|-3-3-3-3-3-3-3-3|----------------|-1--1-1--1-1-1-1|

Chorus: (03:12)
G|----------------|----------------|----------------|----------------|
D|----------------|----------------|----------------|----------------|
A|-3-3-3-3-3-3-3-3|----------------|-0-0-0-0-0-0-0-0|----------------| x3
E|----------------|-3-3-3-3-3-3-3-3|----------------|-1--1-1--1-1-1-1|

G|----------------|----------------|----------------|----------------|
D|----------------|----------------|----------------|----------------|
A|-0--0-0--0-0-0--|----------------|----------------|----------------|
E|----------------|-3--3-3--3-3-3-3|-1-1-1-1-1-1-1-1|-1-1-1-1-1-1-1-1|

Outro: (03:40)
G|----------------|----------------|-----------|------|
D|----------------|----------------|-----------|------|
A|-0--0-0--0-0-0--|----------------|-----------|------|
E|----------------|-3--3-3--3-3-3-3|-1r--------|------|

Thomas Lundesgaard, Norway

            
            
Suggest correction
Creating personal tab
Creating personal tab
You can edit any tab online and save it as your Personal.

You can edit, replace or remove any tab part or add personal notes – all changes will be seen only by you.

Personal tabs can be accessed anytime from any device, even offline.
Learn more »
Give kudos to tab author, rate the tab!
1 2 3 4 5
comments
print report bad tab
guest
You may want to rate the tab now too:
select rating
Wanna post a correction for this tab? Suggest correction