Oops, an error
Loading. Please wait.

Foolish tab

version 2
version 2

Whole song

406 views 1 this week
4 commentsread comments
1 2 3 4 5
1 last vote to show rating
add to favorites
×
Save as Personal and add changes to this tab that will be seen only by you. Learn more ›
×
You can save this tab as Personal to edit and correct it or add notes. All changes will be seen only by you. Learn more »
launch autoscroll
font size
0
reset
how to read this tab
guitar tuner
edit
Autoscroll
slow
fast
+/-
esc
set tempo
stop
Good Charlotte  -  Foolish
Tuning: HALF STEP DOWN!! (:



credits for chords go to Necriononguitar
http://www.ultimate-guitar.com/tabs/g/good_charlotte/foolish_tab.htm



i just correct some things (: and add??? some thing xD
sorry for my english (;

----------
UPDATE: 27-7-2010 [DD-MM-YYYY]
The chords are like this:
    C    C/B* F    G G    Dm   Am
Eb|-0----3----1----3-3----1----0----|
Bb|-1----1----1----3-0----3----1----|
Gb|-0----0----2----0-0----2----2----|
Db|-2----x----3----0-0----0----2----|
Ab|-3----2----3----2-2---------0----|
Eb|-----------1----3-3--------------|
                   ^_^_Whatever_you_Like..

The song is basically like this:

Intro         (picking)   :  C  C/B*  F  G  C

Verse         (strumming) :  C  C/B*  F  G  C  , C  C/B*  F  G  C

Pre-Chorus    (strumming) :  Dm G     Dm G

Chorus        (strumming) :  F  G  F  G  Am G F Dm  F  G  C

Verse         (strumming) :  C  C/B*  F  G  C  , C  C/B*  F  G  C

Pre-Chorus    (strumming) :  Dm G     Dm G

Chorus        (strumming) :  F  G  F  G  Am G F Dm  F  G  C, F  G  C, F  G

Outro (picking&strumming) :  C  C/B*  F  G  C

----------
The Whole Tab:
----------
guitar I
Intro & Outro
   C                            C
Eb|------------0---------------|-------------0--------------------|
Bb|------------1---------------|-------------1--------------------|
Gb|------0-----------0-----0---|------0-------------0------0------|
Db|----------------------------|----------------------------------|
Ab|---3-----3-----------3------|---3-----3--------------3---------|
Eb|----------------------------|----------------------------------|
   C/B*                         C/B*
Eb|------------3---------------|-------------3--------------------|
Bb|------------1---------------|-------------1--------------------|
Gb|------0-----------0-----0---|------0-------------0------0------|
Db|----------------------------|----------------------------------|
Ab|---2-----2-----------2------|---2-----2--------------2---------|
Eb|----------------------------|----------------------------------|
   F                            G
Eb|------------1---------------|-------------3--------------------|
Bb|------------1---------------|-------------3--------------------|
Gb|----------------------------|------0-------------0------0------|
Db|------3-----------3-----3---|----------------------------------|
Ab|----------------------------|----------------------------------|
Eb|---1-----1-----------1------|---3-----3-------------3----------|
   C                            C
Eb|------------0---------------|-------------0--------------------|
Bb|------------1---------------|-------------1--------------------|
Gb|------0-----------0-----0---|------0-------------0------0------|
Db|----------------------------|----------------------------------|
Ab|---3-----3-----------3------|---3-----3--------------3---------|
Eb|----------------------------|----------------------------------|


Guitar II 
Intro
Eb|-----------------------------------------------------------------------|
Bb|-----------------------------------------------------------------------|
Gb|------------------------------------------------------7--5----7--5-----|
Db|--------------------2----5--5~----5-7---5--------5---------------------|
Ab|--3~------3----5-------------------------------------------------------|
Eb|-----------------------------------------------------------------------|

Eb|-------------------------------------|
Bb|-------------------------------------|
Gb|-------------------------------------|
Db|---7--5----7--5----------------------|
Ab|--------------------7-5-3~-----------|
Eb|-------------------------------------|

Guitar II
Outro
Eb|--------------------------------------------------------------|
Bb|----------------------------------------8---------------------|
Gb|----------------------------------5/7------7\5------5---------|
Db|--------------------5-----5/7-5------------------7------(5)---|
Ab|--(3)---7--5---7----------------------------------------------|
Eb|--------------------------------------------------------------|

Eb|----------------------------------------------------|
Bb|----------------------------------------------------|
Gb|-------------------7---5----------------------------|
Db|------5---7---5-------------7---5-------------------|
Ab|---7---------------------------------7--5----3~-----|
Eb|----------------------------------------------------|



Intro
C    C/B*    F  G    C

Verse
C                                C/B*
 Some people will tell you, it's foolish to believe
     F                  G                C
That someone else could feel the way you do
C                          C/B*
 Well people might say, it seems a little strange
   F             G              C
To hope so secretly the way you do

Pre-Chorus
Dm                            G
  But I don't see the harm in love
    Dm                     G
No, I don't see no harm at all

Chorus  
   F           G
To fall foolishly
   F          G
To hurt secretly
     Am        G          F         Dm
That someone else could feel this way
    F   G       C
And fall foolishly

Verse
C                       C/B*
 Been dying to tell you not to lose your faith
        F                    G                C
(Cuz) I swear that love will one day find its way
  C                                    C/B*
Into your heart   Into your mind     Into your life      You might find
F            G               C
Someone else out to play you on


Pre-Chorus
   Dm                      G
So I don't see the harm in love
    Dm                     G
No, I don't see no harm at all

Chorus
   F           G
To fall foolishly
   F          G
To hurt secretly
     Am        G          F         Dm
That someone else could feel this way
    F   G       C
And fall foolishly
        F   G       C
Oh, and fall foolishly
        F          G
Just to fall... to fall foolishly

Outro
C    C/B*    F  G    C

            
            
Suggest correction
Creating personal tab
Creating personal tab
You can edit any tab online and save it as your Personal.

You can edit, replace or remove any tab part or add personal notes – all changes will be seen only by you.

Personal tabs can be accessed anytime from any device, even offline.
Learn more »
Give kudos to tab author, rate the tab!
1 2 3 4 5
comments
print report bad tab
4 comments total. Showing first comments.
0 reply
explosion95 201 Apr 11, 2010 03:49 AM

yeah uhm
how to strum:

V ^ V ^ ^ V ^

V= down ^= Up

+1 reply
josephpetersen 10 May 03, 2010 10:26 AM

its pretty good and i guees its a fair thing since u mentioned the credits so i give it a 5*
the corrections are pretty (stil no big difference ;D)
but u should just aked for the correction...

0 reply
necriononguitar 3,062 Sep 04, 2010 12:31 PM

nice tab man! but it would have been easier if u would have posted it as a correction on my tab, so i couldve updated it... so people find the right thing on one spot ;D
but anyways, great job on this one ;D

guest
You may want to rate the tab now too:
select rating
Wanna post a correction for this tab? Suggest correction