Oops, an error
Loading. Please wait.

Footloose bass

3,632 views 6 this week
no commentswrite comment
1 2 3 4 5
2 more votes to show rating
add to favorites
×
Save as Personal and add changes to this tab that will be seen only by you. Learn more ›
×
You can save this tab as Personal to edit and correct it or add notes. All changes will be seen only by you. Learn more »
launch autoscroll
font size
0
reset
guitar tuner
edit
Autoscroll
slow
fast
+/-
esc
set tempo
stop
this is from a LONG time ago but I just figured it out!! :) Sounds better if you
use your fingers instead of a pick.

Intro (:06) :

Gb|----------------|\
Db|----------------| \
Ab|----------------| / repeat 9 times (1 2 and 3 and 4 and)
Eb|-0-5-55-5-55-5--|/


Verse 1:

Gb|---------------------------------------------------------------|
Db|---------------------------------------------------------------|
Ab|---------------------------------------------------------------|
Eb|-5555555555555555555555555555555555555555555555555555555555555-|


Gb|-----------------------------------------------------------------|
Db|--------------7--7--7--7-----------------------------------------|
Ab|-----------------------------------------------------------------|
Eb|--2~--------------------------------5--55-5--55-5--5-55--5-55--5-|


Gb|-------------------------------------------------------|
Db|-------------------------------------------------------|
Ab|------------6~----7~----10~-----12---------------------|
Eb|--2~---------------------------------------------------|


Chorus (Kind of a walking bass line and somewhat tricky) :

Gb|-----------------------------|
Db|----------------------4-5-7--|  --QUARTER REST--
Ab|---4-5-7---4-5-7----5--------|
Eb|-5-------5-------------------|

after rest (ITS PLAT FAST SO YOU HAVE TO LISTEN):

Gb|--------6-4------|
Db|---4-7------7-4--|
Ab|-5---------------|
Eb|-----------------|


Post Chorus:

G----------------------------|
D----------------------------|
A--5--5--5-------------------|
E------------5--55-5--5-5-5--|


Verse

Gb|---------------------------|
Db|---------------------------|--REPEAT 4 TIMES--
Ab|---------------------------|
Eb|-5--55-5--5-5-5------------|


Gb|-----------------------------------------------------------------|
Db|--------------7--7--7--7-----------------------------------------|
Ab|-----------------------------------------------------------------|
Eb|--2~--------------------------------5--55-5--55-5--5-55--5-55--5-|


Gb|-------------------------------------------------------|
Db|-------------------------------------------------------|
Ab|------------6~----7~----10~-----12---------------------|
Eb|--2~---------------------------------------------------|



-chorus-

Bridge (listen for when it is played):

Gb|-------|
Db|-------|
Ab|-------|
Eb|-0--5--|


Ahhs (those are 10's and 12's):

Gb|-----------------------------------------------------------------------|
Db|-----------------------------------------------------------------------|
Ab|-----------------------------------------------------------------------|
Eb|-0-000000--4-444444--7-777777--10-1010101010101010--12-1212121212--12\-|


Chorus:
"Loose..Footloose"
Gb|-------------|
Db|-------------|
Ab|-----5-------|
Eb|-5---------5-|

Rest of the chorus is the same.

End:

Gb|-------------------|
Db|-------5---4--3----|
Ab|----4------------4-|
Eb|-5-----------------|


Hope this is correct. enjoy!! :)

            
            
Suggest correction
Creating personal tab
Creating personal tab
You can edit any tab online and save it as your Personal.

You can edit, replace or remove any tab part or add personal notes – all changes will be seen only by you.

Personal tabs can be accessed anytime from any device, even offline.
Learn more »
Give kudos to tab author, rate the tab!
1 2 3 4 5
comments
print report bad tab
guest
Wanna post a correction for this tab? Suggest correction