Oops, an error
Loading. Please wait.

Girls And Boys tab

version 5
version 5
2,057 views 3 this week
1 commentread comment
1 2 3 4 5
x 3
add to favorites
×
Save as Personal and add changes to this tab that will be seen only by you. Learn more ›
×
You can save this tab as Personal to edit and correct it or add notes. All changes will be seen only by you. Learn more »
launch autoscroll
font size
0
reset
how to read this tab
guitar tuner
backing track
0:00
0:00
edit
Autoscroll
slow
fast
+/-
esc
set tempo
stop
Author
Good Charlotte Girls and Boys
tuning half a step down
Tabbed by Liam
Email: guitar_rocker_47@hotmail.com

i decided to tab this as the others, well didnt quite hit it.
comments and questions always appreciated,
corrections also, submit via the comments bit
Thanks guys, 


 |Intro
 |Guitar 2 only
e|-------0------------------0---------|
B|-------0------------------0---------|
G|----6---------0--------6---------0--|
D|----7---------9--------7---------9--| x2
A|------------------------------------|
E|-5---------7---------5--------7-----|

 |Verse
 |Guitar 1
e|------------------------------|------------------------------|
B|------------------------------|------------------------------|
G|------------------------------|------------------------------|
D|-7-7---9-9------7-7---9-9-----|-7-7---9-9------7-7---9-9-----|
A|-7-7---9-9------7-7---9-9-----|-7-7---9-9------7-7---9-9-----|
E|-5-5---7-7------5-5---7-7-----|-5-5---7-7------5-5---7-7-----|
PM * *   * *      * *   * *       * *   * *      * *   * *
 |Guitar 2
e|-----0--------------0---------|-----0--------------0---------|
B|-----0--------------0---------|-----0--------------0---------|
G|---6--------0-----6--------0--|---6--------0-----6--------0--|
D|---7--------9-----7--------9--|---7--------9-----7--------9--| 
A|------------------------------|------------------------------|
E|-5-------7------5-------7-----|-5-------7------5-------7-----|

Pre Chorus
 |Both Guitars
e|---------------------------------------------------------------|
B|---------------------------------------------------------------|
G|---------------------------------------------------------------|
D|-7777-9999--7777-9999--7777-9999--7777-9999--7777-99999999-999-|
A|-7777-9999--7777-9999--7777-9999--7777-9999--7777-99999999-999-|
E|-5555-7777--5555-7777--5555-7777--5555-7777--5555-77777777-777-|
PM **** ****  **** ****  **** ****  **** ****  **** ********

 |Chorus
 |Both Guitars
e|-----------------------------------|------------------------------------|
B|-----------------------------------|------------------------------------|
G|-99999999--------------------------|-99999999---------------------------|
D|-99999999-99999999-777777777777777-|-99999999-99999999-7777777777777777-|
A|-77777777-66666666-777777777777777-|-77777777-66666666-7777777777777777-|
E|-------------------555555555555555-|-------------------5555555555555555-|

REPEAT:

Verse x2
Pre Chorus
Chorus x 2

Bridge
 |Guitar 1
e|-------------------------------------------------------------|
B|-------------------------------------------------------------|
G|-------------------------------------------------------------|
D|------------------|Currently Tacet|--------------------------|
A|-------------------------------------------------------------|
E|-------------------------------------------------------------|
 |Guitar 2
e|------------------------------|------------------------------|
B|------------------------------|------------------------------|
G|-9/11--7~-777---11\9--7~--xx--|-9/11--7~-777---11\9--7~--xx--|
D|-x--x--x--xxx----x-x--x---xx--|-x--x--x--xxx----x-x--x---xx--|
A|-7/-9--5~-555----9\7--5~--xx--|-7/-9--5~-555----9\7--5~--xx--|
E|------------------------------|------------------------------|

 |Guitar 1
e|-77777777---777777---9b---9b--|-77777777---9999-eeee-tttt-ffff-|
B|---------------------------------------------------------------|
G|---------------------------------------------------------------|
D|------------------|Currently Tacet|----------------------------|
A|---------------------------------------------------------------|
E|---------------------------------------------------------------|
 |Guitar 2
e|------------------------------|--------------------------------|
B|------------------------------|--------------------------------|
G|-9/11--7~-777---11\9--7~--xx--|-9/11-7~-777--99999999-77799999-|
D|-x--x--x--xxx----x-x--x---xx--|-x--x-x--xxx--xxxxxxxx-xxxxxxxx-|
A|-7/-9--5~-555----9\7--5~--xx--|-7/-9-5~-555--77777777-77777777-|
E|------------------------------|--------------------------------|

 |Chrous (slight change)
 |Both Guitars
e|-----------------------------------|------------------------------------|
B|-----------------------------------|------------------------------------|
G|-9-9-9-9---------------------------|-9-9-9-9----------------------------|
D|-9-9-9-9--9-9-9-9--777777777777777-|-9-9-9-9--9-9-9-9--7777777777777777-|
A|-7-7-7-7--6-6-6-6--777777777777777-|-7-7-7-7--6-6-6-6--7777777777777777-|
E|-------------------555555555555555-|-------------------5555555555555555-|

 |Both Guitars
e|-----------------------------------|------------------------------------|
B|-----------------------------------|------------------------------------|
G|-99999999--------------------------|-99999999---------------------------|
D|-99999999-99999999-777777777777777-|-99999999-99999999-7777777777777777-|
A|-77777777-66666666-777777777777777-|-77777777-66666666-7777777777777777-|
E|-------------------555555555555555-|-------------------5555555555555555-|

REPEAT:

Intro x2
Verse x4 (to fade out)



Thats it, in full. questions and all that stuff to my email.
guitar_rocker_47@hotmail.com

Thank yas. and enjoy

            
            
Suggest correction
Creating personal tab
Creating personal tab
You can edit any tab online and save it as your Personal.

You can edit, replace or remove any tab part or add personal notes – all changes will be seen only by you.

Personal tabs can be accessed anytime from any device, even offline.
Learn more »
Give kudos to tab author, rate the tab!
1 2 3 4 5
comments
print report bad tab
1 comment total.
0 reply
fireliar90 10 Dec 31, 2006 10:45 AM

it looks perfect

guest
You may want to rate the tab now too:
select rating
Wanna post a correction for this tab? Suggest correction