Oops, an error
Loading. Please wait.

Last Night bass

3,073 views 1 this week
no commentswrite comment
1 2 3 4 5
x 3
add to favorites
×
Save as Personal and add changes to this tab that will be seen only by you. Learn more ›
×
You can save this tab as Personal to edit and correct it or add notes. All changes will be seen only by you. Learn more »
launch autoscroll
font size
0
reset
guitar tuner
edit
Autoscroll
slow
fast
+/-
esc
set tempo
stop
Author
Difficulty
			     Last Night - Good charlote
Tabbed By : James Rijke(PaNCaKe_M1X)
e-mail:sorry.Will not risk spam

Tuning:Standard(EADG)

| /  slide up
| \  slide down
| h  hammer-on
| p  pull-off


intro(x2)                           Play 2nd time replacing 3rd frets 
G|-------------------------------| |------------------|
D|--------33-3-33----------------| |------------------|
A|11-1-11---------3333333-33-3-33| |44444444444444445\|
E|-------------------------------| |------------------|

verse(x4)
G|--------------------------------------------------|
D|--------------------------------------------------|
A|55----55----53----53----5----5------1----1/3----3/|
E|-------------------------1----1----1--------------|

chorus pt 1(x2)
G|-----------------------------|
D|-------3---------------------|
A|1-------------3333333-33-3-33|
E|-----------------------------|

chorus pt 2(x2)                     Play 2nd time replacing 3rd frets 
G|-------------------------------| |------------------|
D|--------33-3-33----------------| |------------------|
A|11-1-11---------3333333-33-3-33| |44444444444444445\|
E|-------------------------------| |------------------|

verse pt 1(x2)
G|--------------------------------------------------|
D|--------------------------------------------------|
A|55----55----53----53----5----5------1----1/3----8/|
E|-------------------------1----1----1--------------|

verse pt 2(x2)
G|-------------------------------------------------|
D|--------------------------3-33-33-33 3-----------|
A|55-55-55-55-5p3-33-33-33-3------------1-11-133333|
E|-------------------------------------------------|

chorus pt 1(x2)
G|-----------------------------|
D|--------3--------------------|
A|1-------------3333333-33-3-33|
E|-----------------------------|

chorus pt 2(x2)                     Play 2nd time replacing 3rd frets 
G|-------------------------------| |----------------|
D|--------33-3-33----------------| |----------------|
A|11-1-11---------3333333-33-3-33| |4444444444444444|
E|-------------------------------| |----------------|

interlude pt 1
G|--------------------------------------------------------------------|
D|--------------------------------------------------------------------|
A|555-555-555-555-5p44-444-444-444-4p33-333-333-333-3p22-222-222222222|
E|--------------------------------------------------------------------|

interlude pt 2
G|-----------------------------------------|
D|-----------------------------------------|
A|1-------2-------3-------4---4444444444444|
E|-----------------------------------------|

chorus pt 1(x2)
G|-----------------------------|
D|-----------------------------|
A|1-------------3333333-33-3-33|
E|-------1---------------------|

chorus pt 2(x2)                     Play 2nd time replacing 3rd frets 
G|-------------------------------| |----------------|
D|-------------------------------| |----------------|
A|11-1-11---------3333333-33-3-33| |4444444444444444|
E|--------11-1-11----------------| |----------------|

G|-----------------|
D|-----------------|
A|44444444444444445|
E|-----------------|


| /  slide up
| \  slide down
| h  hammer-on
| p  pull-off
| ~  vibrato
| +  harmonic
| x  Mute note
===============================================================================

            
            
Suggest correction
Creating personal tab
Creating personal tab
You can edit any tab online and save it as your Personal.

You can edit, replace or remove any tab part or add personal notes – all changes will be seen only by you.

Personal tabs can be accessed anytime from any device, even offline.
Learn more »
Give kudos to tab author, rate the tab!
1 2 3 4 5
comments
print report bad tab
guest
You may want to rate the tab now too:
select rating
Wanna post a correction for this tab? Suggest correction