Oops, an error
Loading. Please wait.

Meet My Maker tab

version 3
version 3

Whole song

Interactive

945 views 1 this week
no commentswrite comment
1 2 3 4 5
1 last vote to show rating
add to favorites
×
Save as Personal and add changes to this tab that will be seen only by you. Learn more ›
×
You can save this tab as Personal to edit and correct it or add notes. All changes will be seen only by you. Learn more »
launch autoscroll
font size
0
reset
how to read this tab
guitar tuner
edit
Autoscroll
slow
fast
+/-
esc
set tempo
stop
Author
MEET MY MAKER- Good Charlotte

You can e-mail me at UnAverageKid2@aim.com with any questions or corrections.

~= vibrato
/= slide up
\= slide down
h= hammer-on
+= harmonic

Guitar 1- Left Speaker
Guitar 2- Right Speaker

Intro (0:04-0:21)

Guitar 1
e|----------------|----------------|----------------|----------------|
B|----------------|----------------|----------------|----------------|
G|----------------|----------------|----------------|----------------|
D|6666666655555555|4444444422222222|6666666655555555|4444444422222222|
A|6666666666666666|4444444422222222|6666666666666666|4444444422222222|
E|4444444433333333|2222222200000000|4444444433333333|2222222200000000|
(continued)
e|--------|
B|--------|
G|--------|
D|22222222|
A|22222222|
E|00000000|

Guitar 2 
e|----------------------------------------------------------------|
B|----------------------------------------------------------------|
G|1313131313131313131313131313131312121212121212121212121212121212|
D|----------------------------------------------------------------|
A|----------------------------------------------------------------|
E|----------------------------------------------------------------|
(continued)
e|------------------------------------------------|
B|------------------------------------------------|
G|111111111111111111111111111111119999999999999999|
D|------------------------------------------------|
A|------------------------------------------------|
E|------------------------------------------------|
(continued)
e|----------------------------------------------------------------|
B|----------------------------------------------------------------|
G|1313131313131313131313131616161612121212121212121212121216161616|
D|----------------------------------------------------------------|
A|----------------------------------------------------------------|
E|----------------------------------------------------------------|
(continued)                          
e|------------------------------------------------|
B|------------------------------------------------|
G|111111111111111111111111111111119999999999999999|
D|------------------------------------------------|
A|------------------------------------------------|
E|------------------------------------------------|
(continued)
e|----------------|
B|----------------|
G|9999999999999999|
D|----------------|
A|----------------|
E|----------------|

Verse 1 (0:21-0:54)

Guitar 1 
e|--------------------------------|
B|–-------------------------------|
G|–-4--4-4--4--4-4--3--3-3--4—–-6-|
D|66-66-6-22-22-2-44-44-4-22-244-4|x4
A|--------------------------------|
E|--------------------------------|

Guitar 2
e|------------------------|
B|–-4~-4–-4~-4–-4~-4–-4~-4|
G|4—--4-4—--4-3—–-3-4—–-4-|
D|------------------------|x4
A|------------------------|
E|------------------------|

Pre-Chorus (0:54-1:12)

Guitar 1
e|-----------------------------|------------------------------|--------|
B|-----------------/1299-------|-----------------/1299--------|--------|
G|-----------------------------|----------------------–-4–--4—|--4—--4-|
D|6~-/9665~-/9554~------2~-/922|6~-/9665~-/9554~------22-222-2|22-222-2|
A|-----------------------------|------------------------------|--------|
E|-----------------------------|------------------------------|--------|

Guitar 2
e|------------------------|--------------------------|--------|
B|------------------------|--------------------------|--------|
G|------------------------|--------------------------|--------|
D|6~-6--5~–5--4~-4--2~---2|6~-6--5~–5--4~-4--22222222|22222222|
A|------------------------|--------------------------|--------|
E|------------------------|--------------------------|--------|

Chorus (1:12-1:27)

Guitar 1
e|----------------|----------------|----------------|----------------|
B|----------------|----------------|----------------|----------------|
G|----4444--------|----4444--------|----4444--------|----4444--------|
D|6666444422224444|6666444422224444|6666444422224444|6666444422224444|
A|6666222222224444|6666222222224444|6666222222224444|6666222222224444|
E|4444----00002222|4444----00002222|4444----00002222|4444----00002222|

Guitar 2
e|----------------|----------------|----------------|----------------|
B|----------------|----------------|----------------|----------------|
G|----4444--------|----4444434/6~43|4~–-4444--------|----4444434/6~43|
D|6666444422224444|66664444--------|----444422224444|66664444--------|
A|6666222222224444|66662222--------|----222222224444|66662222--------|
E|4444----00002222|4444------------|--------00002222|4444------------|

Pre-Verse (1:27-1:35)

Guitar 1
e|--------------------------------|
B|--------------------------------|
G|44444444444444443333333344446666|
D|66666666222222224444444422224444|
A|--------------------------------|
E|--------------------------------|
pm................................
Guitar 2
e|------------------------|
B|------------------------|
G|434/6~-434/6~-434/6~431~|
D|------------------------|
A|------------------------|
E|------------------------|

Verse 2 (1:35-1:52)

Guitar 1
e|--------------------------------|
B|–-------------------------------|
G|–-4--4-4--4--4-4--3--3-3--4—–-6-|
D|66-66-6-22-22-2-44-44-4-22-244-4|x2
A|--------------------------------|
E|--------------------------------|
pm................................

Guitar 2
e|------------------------|
B|–-4~-4–-4~-4–-4~-4–-4~-4|
G|4—--4-4—--4-3—–-3-4—–-4-|
D|------------------------|x2
A|------------------------|
E|------------------------|

Pre-Chorus (1:52-2:09)

Guitar 1
e|-----------------------------|------------------------------|--------|
B|-----------------/1299-------|-----------------/1299--------|--------|
G|-----------------------------|----------------------–-4–--4—|--4—--4-|
D|6~-/9665~-/9554~------2~-/922|6~-/9665~-/9554~------22-222-2|22-222-2|
A|-----------------------------|------------------------------|--------|
E|-----------------------------|------------------------------|--------|

Guitar 2
e|------------------------|--------------------------|--------|
B|------------------------|--------------------------|--------|
G|------------------------|--------------------------|--------|
D|6~-6--5~–5--4~-4--2~---2|6~-6--5~–5--4~-4--22222222|22222222|
A|------------------------|--------------------------|--------|
E|------------------------|--------------------------|--------|


Chorus (2:09-2:25)

Guitar 1
e|----------------|----------------|----------------|----------------|
B|----------------|----------------|----------------|----------------|
G|----4444--------|----4444--------|----4444--------|----4444--------|
D|6666444422224444|6666444422224444|6666444422224444|6666444422224444|
A|6666222222224444|6666222222224444|6666222222224444|6666222222224444|
E|4444----00002222|4444----00002222|4444----00002222|4444----00002222|

Guitar 2
e|----------------|----------------|----------------|----------------|
B|----------------|----------------|----------------|----------------|
G|----4444--------|----4444434/6~43|4~–-4444--------|----4444434/6~43|
D|6666444422224444|66664444--------|----444422224444|66664444--------|
A|6666222222224444|66662222--------|----222222224444|66662222--------|
E|4444----00002222|4444------------|--------00002222|4444------------|

Bridge (2:25-2:55)

Guitar 1
e|---------------------------|
B|---------------------------|
G|---------------------------|
D|–-66–-6--66–-6--66–-6--6662|
A|–-66–-6--66–-6--66–-6--6662|
E|0h440h40h440h40h440h40h4440|
(continued)
e|---------------------------|---------------------------|
B|---------------------------|---------------------------|
G|---------------------------|---------------------------|
D|–-66–-6--66–-6--66–-6--6662|–-66–-6--66–-6--66–-6--6666|
A|–-66–-6--66–-6--66–-6--6662|–-66–-6--66–-6--66–-6--6666|
E|0h440h40h440h40h440h40h4440|0h440h40h440h40h440h40h4444|
(continued)
e|----------------|----------------|----------------|----------------|
B|----------------|----------------|----------------|----------------|
G|----------------|----------------|----------------|----------------|
D|6666666655555555|4444444422222222|6666666655555555|4444444422222222|
A|6666666666666666|4444444422222222|6666666666666666|4444444422222222|
E|4444444433333333|2222222200000000|4444444433333333|2222222200000000|
(continued)
e|--------|
B|--------|
G|--------|
D|22222222|
A|22222222|
E|00000000|

Guitar 2
e|---------------------------|
B|---------------------------|
G|---------------------------|
D|-------------------------62|
A|-------------------------62|
E|-------------------------40|
(continued)
e|---------------------------|---------------------------|
B|---------------------------|---------------------------|
G|---------------------------|---------------------------|
D|–-66–-6--66–-6--66–-6--6662|–-66–-6--66–-6--66–-6--6666|
A|–-66–-6--66–-6--66–-6--6662|–-66–-6--66–-6--66–-6--6666|
E|0h440h40h440h40h440h40h4440|0h440h40h440h40h440h40h4444|
(continued)

e|----------------------------------------------------------------|
B|----------------------------------------------------------------|
G|1313131313131313131313131313131312121212121212121212121212121212|
D|----------------------------------------------------------------|
A|----------------------------------------------------------------|
E|----------------------------------------------------------------|
(continued)
e|------------------------------------------------|
B|------------------------------------------------|
G|111111111111111111111111111111119999999999999999|
D|------------------------------------------------|
A|------------------------------------------------|
E|------------------------------------------------|
(continued)
e|----------------------------------------------------------------|
B|----------------------------------------------------------------|
G|1313131313131313131313131616161612121212121212121212121216161616|
D|----------------------------------------------------------------|
A|----------------------------------------------------------------|
E|----------------------------------------------------------------|
(continued)                          
e|------------------------------------------------|
B|------------------------------------------------|
G|111111111111111111111111111111119999999999999999|
D|------------------------------------------------|
A|------------------------------------------------|
E|------------------------------------------------|

Chorus (2:55-3:27)

Guitar 1
e|----------------|----------------|----------------|----------------|
B|----------------|----------------|----------------|----------------|
G|----4444--------|----4444--------|----4444--------|----4444--------|
D|6666444422224444|6666444422224444|6666444422224444|6666444422224444|
A|6666222222224444|6666222222224444|6666222222224444|6666222222224444|
E|4444----00002222|4444----00002222|4444----00002222|4444----00002222|
(continued)
e|----------------|----------------|----------------|----------------|
B|----------------|----------------|----------------|----------------|
G|----------------|44444444--------|----------------|44444444--------|
D|6666666622222222|4444444444444444|6666666622222222|4444444444444444|
A|6666666622222222|2222222244444444|6666666622222222|2222222244444444|
E|4444444400000000|--------22222222|4444444400000000|--------22222222|

Guitar 2
e|----------------|----------------|----------------|----------------|
B|----------------|----------------|----------------|----------------|
G|----4444--------|----4444434/6~43|4~–-4444--------|----4444434/6~43|
D|6666444422224444|66664444--------|----444422224444|66664444--------|
A|6666222222224444|66662222--------|----222222224444|66662222--------|
E|4444----00002222|4444------------|--------00002222|4444------------|
(continued)
e|----------------|----------------|----------------|----------------|
B|----------------|----------------|----------------|----------------|
G|4~------434/6~43|4~------434/6~43|4~------434/6~43|4~------434/6~43|
D|----------------|----------------|----------------|----------------|
A|----------------|----------------|----------------|----------------|
E|----------------|----------------|----------------|----------------|

Outro (3:27-3:32)

Guitar 1
e|-------------------------------------|
B|-------------------------------------|
G|------------4+-----------------------|
D|–-66–-6--666----66–-6--6662–-66–-6--6|
A|–-66–-6--666----66–-6--6662–-66–-6--6|
E|0h440h40h444–-0h440h40h44400h440h40h4|

Guitar 2
e|-------------------------------------|
B|-------------------------------------|
G|/1-----------------------------------|
D|------------4+--66–-6--6662–-66–-6--6|
A|----------------66–-6--6662–-66–-6--6|
E|------------–-0h440h40h44400h440h40h4|

            
            
Suggest correction
Creating personal tab
Creating personal tab
You can edit any tab online and save it as your Personal.

You can edit, replace or remove any tab part or add personal notes – all changes will be seen only by you.

Personal tabs can be accessed anytime from any device, even offline.
Learn more »
Give kudos to tab author, rate the tab!
1 2 3 4 5
comments
print report bad tab
guest
You may want to rate the tab now too:
select rating
Wanna post a correction for this tab? Suggest correction