Oops, an error
Loading. Please wait.
16,368 views 6 this week
no commentswrite comment
1 2 3 4 5
x 7
add to favorites
×
Save as Personal and add changes to this tab that will be seen only by you. Learn more ›
×
You can save this tab as Personal to edit and correct it or add notes. All changes will be seen only by you. Learn more »
launch autoscroll
font size
0
reset
guitar tuner
edit
Autoscroll
slow
fast
+/-
esc
set tempo
stop
Author
This song appears to actually be in half-step down tunning just from the way paul 
plays his bass in the music video, but I just tune to Dropped D. 
I was bored if you couldn't tell. This is my first real tabbed song, although I've 
been tabbing bass for 10 years now. Hope you guys are happy with it.

               Drop in:
G----------------------------------------|
D----------------------------------------|
A----------------------------------------|
D--------------------------------------7/|


           Intro (chorus riff):
G----------------------------------------|
D----------------------------------------|
A-6666-6666-2222-2222--------------------|
D---------------------4444-4444-6666-6666|

G----------------------------------------|
D----------------------------------------|
A-----------2222-2222--------------------|
D-2222-2222-----------4444-4444-6666-6666|


          Bass Bridge 1:
G------------------------------------|
D------------------------------------|
A-6-66-666-6-------------------------|
D-------------4-6-4------------------|

                Verse 1: 
 /    G------------------------------------|    \
|     D-11-1-----------44-433-31-----------|     |
|     A-----44-422-211---------------------|     |
|     D------------------------------------|     |
|            Changes to:x2                       |
|     G------------------------------------|     |
|     D-11-1-----------44-433-31--0--------|     |
|     A-----44-422-211----------24---------|     |
|     D------------------------------------|     |
|     Back to:                                   |
|     G------------------------------------|     |
|     D-11-1-----------44-433-31-----------|     |
|     A-----44-422-211---------------------|     |
 \    D------------------------------------|    /


              Prechorus:
G----------------------------------------|
D-4444-4444-4444-4444-6666-6666-6666-6666|
A----------------------------------------|
D----------------------------------------|

G----------------------------------------|
D----------------------------------------|
A----------------------------------------|
D-4444-4444-4444-4444-6666-6666-6666--8\-|



              Chorus 1:
G----------------------------------------|
D----------------------------------------|
A-6666-6666-2222-2222--------------------|
D---------------------4444-4444-6666-6666|

G----------------------------------------|
D----------------------------------------|
A-----------2222-2222--------------------|
D-2222-2222-----------4444-4444-6666-6666|
                Then:
G----------------------------------------|
D-----------4444-4444--------------------|
A-6666-6666------------------------------|
E---------------------4444-4444-6666-6666|

G----------------------------------------|
D----------------------------------------|
A-----------2222-2222--------------------|
D-2222-2222-----------4444-4444-6666-6666|


          Bass Bridge2:
G------------------------------------|
D-1-1------1-------------------------|
A------------------------------------|
D----1-111---------------------------|

            Verse2 (M Shadows: vocals)
 /    G------------------------------------|    \
|     D-11-1-----------44-433-31--0--------|     |
|     A-----44-422-211----------24---------|     |
|     D------------------------------------|     |
|                 Changes to:                    |
|     G------------------------------------|     |
|     D-11-1-----------44-433-31-1\10/1----|     |
|     A-----44-422-211---------------------|     |
|     D------------------------------------|     |
|                     Then:                      |
|     G------------------------------------|     |
|     D-11-1-----------44-433-31-----------|     |
|     A-----44-422-211---------------------|     |
|     D------------------------------------|     |
|                      And:                      |
|     G------------------------------------|     |
|     D-11-1-----------44-433-31-11--------|     |
|     A-----44-422-211--------------4------|     |
 \    D------------------------------------|    /


               Prechorus:
G----------------------------------------|
D-4444-4444-4444-4444-6666-6666-6666-6666|
A----------------------------------------|
D----------------------------------------|

G----------------------------------------|
D----------------------------------------|
A----------------------------------------|
D-4444-4444-4444-4444-6666-6666-6666--8\-|

               Chorus 2:
G----------------------------------------|
D----------------------------------------|
A-6666-6666-2222-2222--------------------|
D---------------------4444-4444-6666-6666|

G----------------------------------------|
D----------------------------------------|
A-----------2222-2222--------------------|
D-2222-2222-----------4444-4444-6666-6666|
                 Then:
G----------------------------------------|
D-----------4444-4444--------------------|
A-6666-6666------------------------------|
D---------------------4444-4444-6666-6666|

G----------------------------------------|
D----------------------------------------|
A-----------2222-2222--------------------|
D-2222-2222-----------4444-4444-6666-6666|


           Added Chorus:x2
G----------------------------------------|
D-----------4444-4444--------------------|
A-6666-6666------------------------------|
D---------------------4444-4444-6666-6666|

          (Synyster Gates intro)                                           
G----------------------------------------|
D----------------------------------------|
A----------------------------------------|
D-11/------------------------------------|

        Ending(Synyster Gates Solo):x3
G----------------------------------------|
D----------------------------------------|
A-6666-6666-2222-2222--------------------|
D---------------------4444-4444-6666-6666|

G----------------------------------------|
D-----------4444-4444-4444-4444-6666-6666|
A-6666-6666------------------------------|
D----------------------------------------|

               Drop Out:
G----------------------------------------|
D----------------------------------------|
A----------------------------------------|
D-11/------------------------------------|

            
            
Suggest correction
Creating personal tab
Creating personal tab
You can edit any tab online and save it as your Personal.

You can edit, replace or remove any tab part or add personal notes – all changes will be seen only by you.

Personal tabs can be accessed anytime from any device, even offline.
Learn more »
comments
print report bad tab
guest
You may want to rate the tab now too:
select rating
Wanna post a correction for this tab? Suggest correction